  0
SECTION
  2
HEADER
  9
$ACADVER
  1
AC1014
  9
$HANDSEED
  5
FFFF
  9
$MEASUREMENT
 70
     1
  0
ENDSEC
  0
SECTION
  2
TABLES
  0
TABLE
  2
VPORT
  5
8
330
0
100
AcDbSymbolTable
 70
     4
  0
VPORT
  5
2E
330
8
100
AcDbSymbolTableRecord
100
AcDbViewportTableRecord
  2
*ACTIVE
 70
     0
 10
0.0
 20
0.0
 11
1.0
 21
1.0
 12
210.0
 22
148.5
 13
0.0
 23
0.0
 14
10.0
 24
10.0
 15
10.0
 25
10.0
 16
0.0
 26
0.0
 36
1.0
 17
0.0
 27
0.0
 37
0.0
 40
341.0
 41
1.24
 42
50.0
 43
0.0
 44
0.0
 50
0.0
 51
0.0
 71
     0
 72
   100
 73
     1
 74
     3
 75
     0
 76
     0
 77
     0
 78
     0
  0
ENDTAB
  0
TABLE
  2
LTYPE
  5
5
330
0
100
AcDbSymbolTable
 70
     1
  0
LTYPE
  5
14
330
5
100
AcDbSymbolTableRecord
100
AcDbLinetypeTableRecord
  2
BYBLOCK
 70
     0
  3

 72
    65
 73
     0
 40
0.0
  0
LTYPE
  5
15
330
5
100
AcDbSymbolTableRecord
100
AcDbLinetypeTableRecord
  2
BYLAYER
 70
     0
  3

 72
    65
 73
     0
 40
0.0
  0
LTYPE
  5
16
330
5
100
AcDbSymbolTableRecord
100
AcDbLinetypeTableRecord
  2
CONTINUOUS
 70
     0
  3
Solid line
 72
    65
 73
     0
 40
0.0
  0
ENDTAB
  0
TABLE
  2
LAYER
  5
2
100
AcDbSymbolTable
 70
2
  0
LAYER
  5
50
100
AcDbSymbolTableRecord
100
AcDbLayerTableRecord
  2
0
 70
0
  6
CONTINUOUS
  0
LAYER
  5
51
100
AcDbSymbolTableRecord
100
AcDbLayerTableRecord
  2
decoupe
 70
0
  6
CONTINUOUS
  0
ENDTAB
  0
TABLE
  2
STYLE
  5
3
330
0
100
AcDbSymbolTable
 70
     1
  0
STYLE
  5
11
330
3
100
AcDbSymbolTableRecord
100
AcDbTextStyleTableRecord
  2
STANDARD
 70
     0
 40
0.0
 41
1.0
 50
0.0
 71
     0
 42
2.5
  3
txt
  4

  0
ENDTAB
  0
TABLE
  2
VIEW
  5
6
330
0
100
AcDbSymbolTable
 70
     0
  0
ENDTAB
  0
TABLE
  2
UCS
  5
7
330
0
100
AcDbSymbolTable
 70
     0
  0
ENDTAB
  0
TABLE
  2
APPID
  5
9
330
0
100
AcDbSymbolTable
 70
     2
  0
APPID
  5
12
330
9
100
AcDbSymbolTableRecord
100
AcDbRegAppTableRecord
  2
ACAD
 70
     0
  0
ENDTAB
  0
TABLE
  2
DIMSTYLE
  5
A
330
0
100
AcDbSymbolTable
 70
     1
  0
DIMSTYLE
105
27
330
A
100
AcDbSymbolTableRecord
100
AcDbDimStyleTableRecord
  2
ISO-25
 70
     0
  3

  4

  5

  6

  7

 40
1.0
 41
2.5
 42
0.625
 43
3.75
 44
1.25
 45
0.0
 46
0.0
 47
0.0
 48
0.0
140
2.5
141
2.5
142
0.0
143
0.03937007874016
144
1.0
145
0.0
146
1.0
147
0.625
 71
     0
 72
     0
 73
     0
 74
     0
 75
     0
 76
     0
 77
     1
 78
     8
170
     0
171
     3
172
     1
173
     0
174
     0
175
     0
176
     0
177
     0
178
     0
270
     2
271
     2
272
     2
273
     2
274
     3
340
11
275
     0
280
     0
281
     0
282
     0
283
     0
284
     8
285
     0
286
     0
287
     3
288
     0
  0
ENDTAB
  0
TABLE
  2
BLOCK_RECORD
  5
1
330
0
100
AcDbSymbolTable
 70
     1
  0
BLOCK_RECORD
  5
1F
330
1
100
AcDbSymbolTableRecord
100
AcDbBlockTableRecord
  2
*MODEL_SPACE
  0
BLOCK_RECORD
  5
1B
330
1
100
AcDbSymbolTableRecord
100
AcDbBlockTableRecord
  2
*PAPER_SPACE
  0
ENDTAB
  0
ENDSEC
  0
SECTION
  2
BLOCKS
  0
BLOCK
  5
20
330
1F
100
AcDbEntity
  8
0
100
AcDbBlockBegin
  2
*MODEL_SPACE
 70
     0
 10
0.0
 20
0.0
 30
0.0
  3
*MODEL_SPACE
  1

  0
ENDBLK
  5
21
330
1F
100
AcDbEntity
  8
0
100
AcDbBlockEnd
  0
BLOCK
  5
1C
330
1B
100
AcDbEntity
 67
     1
  8
0
100
AcDbBlockBegin
  2
*PAPER_SPACE
  1

  0
ENDBLK
  5
1D
330
1B
100
AcDbEntity
 67
     1
  8
0
100
AcDbBlockEnd
  0
ENDSEC
  0
SECTION
  2
ENTITIES
  0
LWPOLYLINE
  5
100
100
AcDbEntity
  8
decoupe
 62
7
100
AcDbPolyline
 90
37
 70
0
 10
136.383398
 20
136.047290
 30
0.0
 10
136.383398
 20
110.847269
 30
0.0
 10
133.383395
 20
110.847269
 30
0.0
 10
133.383395
 20
85.647250
 30
0.0
 10
136.383398
 20
85.647250
 30
0.0
 10
136.383398
 20
60.447227
 30
0.0
 10
133.383395
 20
60.447227
 30
0.0
 10
133.383395
 20
35.247207
 30
0.0
 10
136.383398
 20
35.247207
 30
0.0
 10
136.383398
 20
10.047186
 30
0.0
 10
111.183378
 20
10.047186
 30
0.0
 10
111.183378
 20
13.047189
 30
0.0
 10
85.983357
 20
13.047189
 30
0.0
 10
85.983357
 20
10.047186
 30
0.0
 10
60.783334
 20
10.047186
 30
0.0
 10
60.783334
 20
13.047189
 30
0.0
 10
35.583315
 20
13.047189
 30
0.0
 10
35.583315
 20
10.047186
 30
0.0
 10
10.383294
 20
10.047186
 30
0.0
 10
10.383294
 20
35.247207
 30
0.0
 10
13.383297
 20
35.247207
 30
0.0
 10
13.383297
 20
60.447227
 30
0.0
 10
10.383294
 20
60.447227
 30
0.0
 10
10.383294
 20
85.647250
 30
0.0
 10
13.383297
 20
85.647250
 30
0.0
 10
13.383297
 20
110.847269
 30
0.0
 10
10.383294
 20
110.847269
 30
0.0
 10
10.383294
 20
136.047290
 30
0.0
 10
35.583315
 20
136.047290
 30
0.0
 10
35.583315
 20
133.047288
 30
0.0
 10
60.783334
 20
133.047288
 30
0.0
 10
60.783334
 20
136.047290
 30
0.0
 10
85.983357
 20
136.047290
 30
0.0
 10
85.983357
 20
133.047288
 30
0.0
 10
111.183378
 20
133.047288
 30
0.0
 10
111.183378
 20
136.047290
 30
0.0
 10
136.383398
 20
136.047290
 30
0.0
  0
LWPOLYLINE
  5
101
100
AcDbEntity
  8
decoupe
 62
7
100
AcDbPolyline
 90
37
 70
0
 10
189.330562
 20
267.520081
 30
0.0
 10
214.530585
 20
267.520081
 30
0.0
 10
214.530585
 20
264.520079
 30
0.0
 10
239.730605
 20
264.520079
 30
0.0
 10
239.730605
 20
267.520081
 30
0.0
 10
264.930625
 20
267.520081
 30
0.0
 10
264.930625
 20
242.320061
 30
0.0
 10
261.930623
 20
242.320061
 30
0.0
 10
261.930623
 20
217.120041
 30
0.0
 10
264.930625
 20
217.120041
 30
0.0
 10
264.930625
 20
191.920018
 30
0.0
 10
261.930623
 20
191.920018
 30
0.0
 10
261.930623
 20
166.719998
 30
0.0
 10
264.930625
 20
166.719998
 30
0.0
 10
264.930625
 20
141.519978
 30
0.0
 10
239.730605
 20
141.519978
 30
0.0
 10
239.730605
 20
144.519980
 30
0.0
 10
214.530585
 20
144.519980
 30
0.0
 10
214.530585
 20
141.519978
 30
0.0
 10
189.330562
 20
141.519978
 30
0.0
 10
189.330562
 20
144.519980
 30
0.0
 10
164.130543
 20
144.519980
 30
0.0
 10
164.130543
 20
141.519978
 30
0.0
 10
138.930522
 20
141.519978
 30
0.0
 10
138.930522
 20
166.719998
 30
0.0
 10
141.930524
 20
166.719998
 30
0.0
 10
141.930524
 20
191.920018
 30
0.0
 10
138.930522
 20
191.920018
 30
0.0
 10
138.930522
 20
217.120041
 30
0.0
 10
141.930524
 20
217.120041
 30
0.0
 10
141.930524
 20
242.320061
 30
0.0
 10
138.930522
 20
242.320061
 30
0.0
 10
138.930522
 20
267.520081
 30
0.0
 10
164.130543
 20
267.520081
 30
0.0
 10
164.130543
 20
264.520079
 30
0.0
 10
189.330562
 20
264.520079
 30
0.0
 10
189.330562
 20
267.520081
 30
0.0
  0
LWPOLYLINE
  5
102
100
AcDbEntity
  8
decoupe
 62
7
100
AcDbPolyline
 90
38
 70
0
 10
13.051536
 20
267.191575
 30
0.0
 10
13.051536
 20
241.994422
 30
0.0
 10
10.052925
 20
241.994422
 30
0.0
 10
10.052925
 20
216.788450
 30
0.0
 10
13.051536
 20
216.788450
 30
0.0
 10
13.051536
 20
191.591297
 30
0.0
 10
10.052925
 20
191.591297
 30
0.0
 10
10.052925
 20
166.394144
 30
0.0
 10
13.051536
 20
166.394144
 30
0.0
 10
13.051536
 20
141.188172
 30
0.0
 10
35.250078
 20
141.188172
 30
0.0
 10
35.250078
 20
144.195602
 30
0.0
 10
60.456050
 20
144.195602
 30
0.0
 10
60.456050
 20
141.188172
 30
0.0
 10
85.653203
 20
141.188172
 30
0.0
 10
85.653203
 20
144.195602
 30
0.0
 10
110.850355
 20
144.195602
 30
0.0
 10
110.850355
 20
141.188172
 30
0.0
 10
133.048897
 20
141.188172
 30
0.0
 10
133.048897
 20
166.394144
 30
0.0
 10
136.056328
 20
166.394144
 30
0.0
 10
136.056328
 20
191.591297
 30
0.0
 10
133.048897
 20
191.591297
 30
0.0
 10
133.048897
 20
216.788450
 30
0.0
 10
136.056328
 20
216.788450
 30
0.0
 10
136.056328
 20
241.994422
 30
0.0
 10
133.048897
 20
241.994422
 30
0.0
 10
133.048897
 20
267.191575
 30
0.0
 10
110.850355
 20
267.191575
 30
0.0
 10
110.850355
 20
264.192964
 30
0.0
 10
85.653203
 20
264.192964
 30
0.0
 10
85.653203
 20
267.191575
 30
0.0
 10
60.456050
 20
267.191575
 30
0.0
 10
60.456050
 20
264.192964
 30
0.0
 10
35.250078
 20
264.192964
 30
0.0
 10
35.250078
 20
267.191575
 30
0.0
 10
13.051536
 20
267.191575
 30
0.0
 10
13.051536
 20
267.191575
 30
0.0
  0
LWPOLYLINE
  5
103
100
AcDbEntity
  8
decoupe
 62
7
100
AcDbPolyline
 90
37
 70
0
 10
367.916814
 20
141.446998
 30
0.0
 10
367.916814
 20
144.447000
 30
0.0
 10
342.716793
 20
144.447000
 30
0.0
 10
342.716793
 20
141.446998
 30
0.0
 10
317.516770
 20
141.446998
 30
0.0
 10
317.516770
 20
144.447000
 30
0.0
 10
292.316751
 20
144.447000
 30
0.0
 10
292.316751
 20
141.446998
 30
0.0
 10
270.116733
 20
141.446998
 30
0.0
 10
270.116733
 20
166.647018
 30
0.0
 10
267.116730
 20
166.647018
 30
0.0
 10
267.116730
 20
191.847038
 30
0.0
 10
270.116733
 20
191.847038
 30
0.0
 10
270.116733
 20
217.047061
 30
0.0
 10
267.116730
 20
217.047061
 30
0.0
 10
267.116730
 20
242.247081
 30
0.0
 10
270.116733
 20
242.247081
 30
0.0
 10
270.116733
 20
267.447101
 30
0.0
 10
292.316751
 20
267.447101
 30
0.0
 10
292.316751
 20
264.447099
 30
0.0
 10
317.516770
 20
264.447099
 30
0.0
 10
317.516770
 20
267.447101
 30
0.0
 10
342.716793
 20
267.447101
 30
0.0
 10
342.716793
 20
264.447099
 30
0.0
 10
367.916814
 20
264.447099
 30
0.0
 10
367.916814
 20
267.447101
 30
0.0
 10
390.116831
 20
267.447101
 30
0.0
 10
390.116831
 20
242.247081
 30
0.0
 10
393.116834
 20
242.247081
 30
0.0
 10
393.116834
 20
217.047061
 30
0.0
 10
390.116831
 20
217.047061
 30
0.0
 10
390.116831
 20
191.847038
 30
0.0
 10
393.116834
 20
191.847038
 30
0.0
 10
393.116834
 20
166.647018
 30
0.0
 10
390.116831
 20
166.647018
 30
0.0
 10
390.116831
 20
141.446998
 30
0.0
 10
367.916814
 20
141.446998
 30
0.0
  0
LWPOLYLINE
  5
104
100
AcDbEntity
  8
decoupe
 62
7
100
AcDbPolyline
 90
37
 70
0
 10
264.937907
 20
63.413348
 30
0.0
 10
264.937907
 20
38.213328
 30
0.0
 10
261.937904
 20
38.213328
 30
0.0
 10
261.937904
 20
16.013311
 30
0.0
 10
239.737887
 20
16.013311
 30
0.0
 10
239.737887
 20
13.013308
 30
0.0
 10
214.537866
 20
13.013308
 30
0.0
 10
214.537866
 20
16.013311
 30
0.0
 10
189.337844
 20
16.013311
 30
0.0
 10
189.337844
 20
13.013308
 30
0.0
 10
164.137824
 20
13.013308
 30
0.0
 10
164.137824
 20
16.013311
 30
0.0
 10
141.937806
 20
16.013311
 30
0.0
 10
141.937806
 20
38.213328
 30
0.0
 10
138.937803
 20
38.213328
 30
0.0
 10
138.937803
 20
63.413348
 30
0.0
 10
141.937806
 20
63.413348
 30
0.0
 10
141.937806
 20
88.613371
 30
0.0
 10
138.937803
 20
88.613371
 30
0.0
 10
138.937803
 20
113.813391
 30
0.0
 10
141.937806
 20
113.813391
 30
0.0
 10
141.937806
 20
136.013409
 30
0.0
 10
164.137824
 20
136.013409
 30
0.0
 10
164.137824
 20
139.013412
 30
0.0
 10
189.337844
 20
139.013412
 30
0.0
 10
189.337844
 20
136.013409
 30
0.0
 10
214.537866
 20
136.013409
 30
0.0
 10
214.537866
 20
139.013412
 30
0.0
 10
239.737887
 20
139.013412
 30
0.0
 10
239.737887
 20
136.013409
 30
0.0
 10
261.937904
 20
136.013409
 30
0.0
 10
261.937904
 20
113.813391
 30
0.0
 10
264.937907
 20
113.813391
 30
0.0
 10
264.937907
 20
88.613371
 30
0.0
 10
261.937904
 20
88.613371
 30
0.0
 10
261.937904
 20
63.413348
 30
0.0
 10
264.937907
 20
63.413348
 30
0.0
  0
LWPOLYLINE
  5
105
100
AcDbEntity
  8
decoupe
 62
7
100
AcDbPolyline
 90
15
 70
0
 10
74.325734
 20
220.622965
 30
0.0
 10
72.985178
 20
220.490674
 30
0.0
 10
61.766845
 20
219.370604
 30
0.0
 10
61.017192
 20
219.300049
 30
0.0
 10
61.140664
 20
218.559215
 30
0.0
 10
66.749831
 20
183.784146
 30
0.0
 10
66.961498
 20
182.452410
 30
0.0
 10
67.931637
 20
183.387271
 30
0.0
 10
84.759137
 20
199.650327
 30
0.0
 10
85.693998
 20
200.558729
 30
0.0
 10
84.423998
 20
200.849771
 30
0.0
 10
65.717956
 20
205.127202
 30
0.0
 10
73.673095
 20
219.449979
 30
0.0
 10
74.325734
 20
220.622965
 30
0.0
 10
74.325734
 20
220.622965
 30
0.0
  0
LWPOLYLINE
  5
106
100
AcDbEntity
  8
decoupe
 62
7
100
AcDbPolyline
 90
5
 70
0
 10
71.785734
 20
218.956090
 30
0.0
 10
64.589067
 20
206.017965
 30
0.0
 10
62.648789
 20
218.038868
 30
0.0
 10
71.785734
 20
218.956090
 30
0.0
 10
71.785734
 20
218.956090
 30
0.0
  0
LWPOLYLINE
  5
107
100
AcDbEntity
  8
decoupe
 62
7
100
AcDbPolyline
 90
5
 70
0
 10
64.941845
 20
203.857202
 30
0.0
 10
82.845317
 20
199.764979
 30
0.0
 10
67.931637
 20
185.345188
 30
0.0
 10
64.941845
 20
203.857202
 30
0.0
 10
64.941845
 20
203.857202
 30
0.0
  0
SPLINE
  5
108
100
AcDbEntity
  8
decoupe
 62
7
100
AcDbSpline
 70
8
 71
3
 72
8
 73
4
 74
0
 40
0
 40
0
 40
0
 40
0
 40
1
 40
1
 40
1
 40
1
 10
225.024731
 20
159.906547
 30
0.0
 10
225.024731
 20
157.773990
 30
0.0
 10
223.295952
 20
156.045211
 30
0.0
 10
221.163397
 20
156.045211
 30
0.0
  0
SPLINE
  5
109
100
AcDbEntity
  8
decoupe
 62
7
100
AcDbSpline
 70
8
 71
3
 72
8
 73
4
 74
0
 40
0
 40
0
 40
0
 40
0
 40
1
 40
1
 40
1
 40
1
 10
221.163397
 20
156.045211
 30
0.0
 10
219.030839
 20
156.045211
 30
0.0
 10
217.302061
 20
157.773990
 30
0.0
 10
217.302061
 20
159.906547
 30
0.0
  0
SPLINE
  5
10a
100
AcDbEntity
  8
decoupe
 62
7
100
AcDbSpline
 70
8
 71
3
 72
8
 73
4
 74
0
 40
0
 40
0
 40
0
 40
0
 40
1
 40
1
 40
1
 40
1
 10
217.302061
 20
159.906547
 30
0.0
 10
217.302061
 20
162.039104
 30
0.0
 10
219.030839
 20
163.767883
 30
0.0
 10
221.163397
 20
163.767883
 30
0.0
  0
SPLINE
  5
10b
100
AcDbEntity
  8
decoupe
 62
7
100
AcDbSpline
 70
8
 71
3
 72
8
 73
4
 74
0
 40
0
 40
0
 40
0
 40
0
 40
1
 40
1
 40
1
 40
1
 10
221.163397
 20
163.767883
 30
0.0
 10
223.295952
 20
163.767883
 30
0.0
 10
225.024731
 20
162.039104
 30
0.0
 10
225.024731
 20
159.906547
 30
0.0
  0
LWPOLYLINE
  5
10c
100
AcDbEntity
  8
decoupe
 62
7
100
AcDbPolyline
 90
18
 70
0
 10
82.527817
 20
225.129702
 30
0.0
 10
80.825664
 20
225.112063
 30
0.0
 10
74.087609
 20
225.050327
 30
0.0
 10
74.096414
 20
223.639215
 30
0.0
 10
79.132317
 20
223.683313
 30
0.0
 10
76.177803
 20
220.667063
 30
0.0
 10
75.242942
 20
219.714563
 30
0.0
 10
76.557039
 20
219.485257
 30
0.0
 10
80.737456
 20
218.726785
 30
0.0
 10
77.289053
 20
215.022618
 30
0.0
 10
78.329748
 20
214.061299
 30
0.0
 10
82.660095
 20
218.717965
 30
0.0
 10
83.542039
 20
219.661646
 30
0.0
 10
82.272039
 20
219.890952
 30
0.0
 10
78.126900
 20
220.631785
 30
0.0
 10
81.337178
 20
223.912618
 30
0.0
 10
82.527803
 20
225.129702
 30
0.0
 10
82.527817
 20
225.129702
 30
0.0
  0
LWPOLYLINE
  5
10d
100
AcDbEntity
  8
decoupe
 62
7
100
AcDbPolyline
 90
2
 70
0
 10
225.024731
 20
159.906547
 30
0.0
 10
225.024731
 20
159.906547
 30
0.0
  0
SPLINE
  5
10e
100
AcDbEntity
  8
decoupe
 62
7
100
AcDbSpline
 70
8
 71
3
 72
8
 73
4
 74
0
 40
0
 40
0
 40
0
 40
0
 40
1
 40
1
 40
1
 40
1
 10
170.048733
 20
245.156726
 30
0.0
 10
170.048733
 20
244.365142
 30
0.0
 10
169.407026
 20
243.723435
 30
0.0
 10
168.615443
 20
243.723435
 30
0.0
  0
SPLINE
  5
10f
100
AcDbEntity
  8
decoupe
 62
7
100
AcDbSpline
 70
8
 71
3
 72
8
 73
4
 74
0
 40
0
 40
0
 40
0
 40
0
 40
1
 40
1
 40
1
 40
1
 10
168.615443
 20
243.723435
 30
0.0
 10
167.823859
 20
243.723435
 30
0.0
 10
167.182152
 20
244.365142
 30
0.0
 10
167.182152
 20
245.156726
 30
0.0
  0
SPLINE
  5
110
100
AcDbEntity
  8
decoupe
 62
7
100
AcDbSpline
 70
8
 71
3
 72
8
 73
4
 74
0
 40
0
 40
0
 40
0
 40
0
 40
1
 40
1
 40
1
 40
1
 10
167.182152
 20
245.156726
 30
0.0
 10
167.182152
 20
245.948309
 30
0.0
 10
167.823859
 20
246.590015
 30
0.0
 10
168.615443
 20
246.590015
 30
0.0
  0
SPLINE
  5
111
100
AcDbEntity
  8
decoupe
 62
7
100
AcDbSpline
 70
8
 71
3
 72
8
 73
4
 74
0
 40
0
 40
0
 40
0
 40
0
 40
1
 40
1
 40
1
 40
1
 10
168.615443
 20
246.590015
 30
0.0
 10
169.407026
 20
246.590015
 30
0.0
 10
170.048733
 20
245.948309
 30
0.0
 10
170.048733
 20
245.156726
 30
0.0
  0
LWPOLYLINE
  5
112
100
AcDbEntity
  8
decoupe
 62
7
100
AcDbPolyline
 90
5
 70
0
 10
195.724236
 20
165.085713
 30
0.0
 10
208.724247
 20
165.085713
 30
0.0
 10
208.724247
 20
153.085703
 30
0.0
 10
195.724236
 20
153.085703
 30
0.0
 10
195.724236
 20
165.085713
 30
0.0
  0
SPLINE
  5
113
100
AcDbEntity
  8
decoupe
 62
7
100
AcDbSpline
 70
8
 71
3
 72
8
 73
4
 74
0
 40
0
 40
0
 40
0
 40
0
 40
1
 40
1
 40
1
 40
1
 10
187.806655
 20
225.859663
 30
0.0
 10
187.806655
 20
225.068079
 30
0.0
 10
187.164948
 20
224.426372
 30
0.0
 10
186.373364
 20
224.426372
 30
0.0
  0
SPLINE
  5
114
100
AcDbEntity
  8
decoupe
 62
7
100
AcDbSpline
 70
8
 71
3
 72
8
 73
4
 74
0
 40
0
 40
0
 40
0
 40
0
 40
1
 40
1
 40
1
 40
1
 10
186.373364
 20
224.426372
 30
0.0
 10
185.581781
 20
224.426372
 30
0.0
 10
184.940074
 20
225.068079
 30
0.0
 10
184.940074
 20
225.859663
 30
0.0
  0
SPLINE
  5
115
100
AcDbEntity
  8
decoupe
 62
7
100
AcDbSpline
 70
8
 71
3
 72
8
 73
4
 74
0
 40
0
 40
0
 40
0
 40
0
 40
1
 40
1
 40
1
 40
1
 10
184.940074
 20
225.859663
 30
0.0
 10
184.940074
 20
226.651246
 30
0.0
 10
185.581781
 20
227.292952
 30
0.0
 10
186.373364
 20
227.292952
 30
0.0
  0
SPLINE
  5
116
100
AcDbEntity
  8
decoupe
 62
7
100
AcDbSpline
 70
8
 71
3
 72
8
 73
4
 74
0
 40
0
 40
0
 40
0
 40
0
 40
1
 40
1
 40
1
 40
1
 10
186.373364
 20
227.292952
 30
0.0
 10
187.164948
 20
227.292952
 30
0.0
 10
187.806655
 20
226.651246
 30
0.0
 10
187.806655
 20
225.859663
 30
0.0
  0
LWPOLYLINE
  5
117
100
AcDbEntity
  8
decoupe
 62
7
100
AcDbPolyline
 90
2
 70
0
 10
170.048733
 20
245.156726
 30
0.0
 10
170.048733
 20
245.156726
 30
0.0
  0
SPLINE
  5
118
100
AcDbEntity
  8
decoupe
 62
7
100
AcDbSpline
 70
8
 71
3
 72
8
 73
4
 74
0
 40
0
 40
0
 40
0
 40
0
 40
1
 40
1
 40
1
 40
1
 10
218.793959
 20
211.357266
 30
0.0
 10
218.793959
 20
210.565681
 30
0.0
 10
218.152252
 20
209.923975
 30
0.0
 10
217.360668
 20
209.923975
 30
0.0
  0
SPLINE
  5
119
100
AcDbEntity
  8
decoupe
 62
7
100
AcDbSpline
 70
8
 71
3
 72
8
 73
4
 74
0
 40
0
 40
0
 40
0
 40
0
 40
1
 40
1
 40
1
 40
1
 10
217.360668
 20
209.923975
 30
0.0
 10
216.569085
 20
209.923975
 30
0.0
 10
215.927378
 20
210.565681
 30
0.0
 10
215.927378
 20
211.357266
 30
0.0
  0
SPLINE
  5
11a
100
AcDbEntity
  8
decoupe
 62
7
100
AcDbSpline
 70
8
 71
3
 72
8
 73
4
 74
0
 40
0
 40
0
 40
0
 40
0
 40
1
 40
1
 40
1
 40
1
 10
215.927378
 20
211.357266
 30
0.0
 10
215.927378
 20
212.148849
 30
0.0
 10
216.569085
 20
212.790555
 30
0.0
 10
217.360668
 20
212.790555
 30
0.0
  0
SPLINE
  5
11b
100
AcDbEntity
  8
decoupe
 62
7
100
AcDbSpline
 70
8
 71
3
 72
8
 73
4
 74
0
 40
0
 40
0
 40
0
 40
0
 40
1
 40
1
 40
1
 40
1
 10
217.360668
 20
212.790555
 30
0.0
 10
218.152252
 20
212.790555
 30
0.0
 10
218.793959
 20
212.148849
 30
0.0
 10
218.793959
 20
211.357266
 30
0.0
  0
LWPOLYLINE
  5
11c
100
AcDbEntity
  8
decoupe
 62
7
100
AcDbPolyline
 90
2
 70
0
 10
187.806655
 20
225.859663
 30
0.0
 10
187.806655
 20
225.859663
 30
0.0
  0
SPLINE
  5
11d
100
AcDbEntity
  8
decoupe
 62
7
100
AcDbSpline
 70
8
 71
3
 72
8
 73
4
 74
0
 40
0
 40
0
 40
0
 40
0
 40
1
 40
1
 40
1
 40
1
 10
236.551881
 20
192.060203
 30
0.0
 10
236.551881
 20
191.268618
 30
0.0
 10
235.910174
 20
190.626912
 30
0.0
 10
235.118590
 20
190.626912
 30
0.0
  0
SPLINE
  5
11e
100
AcDbEntity
  8
decoupe
 62
7
100
AcDbSpline
 70
8
 71
3
 72
8
 73
4
 74
0
 40
0
 40
0
 40
0
 40
0
 40
1
 40
1
 40
1
 40
1
 10
235.118590
 20
190.626912
 30
0.0
 10
234.327006
 20
190.626912
 30
0.0
 10
233.685299
 20
191.268618
 30
0.0
 10
233.685299
 20
192.060203
 30
0.0
  0
SPLINE
  5
11f
100
AcDbEntity
  8
decoupe
 62
7
100
AcDbSpline
 70
8
 71
3
 72
8
 73
4
 74
0
 40
0
 40
0
 40
0
 40
0
 40
1
 40
1
 40
1
 40
1
 10
233.685299
 20
192.060203
 30
0.0
 10
233.685299
 20
192.851786
 30
0.0
 10
234.327006
 20
193.493492
 30
0.0
 10
235.118590
 20
193.493492
 30
0.0
  0
SPLINE
  5
120
100
AcDbEntity
  8
decoupe
 62
7
100
AcDbSpline
 70
8
 71
3
 72
8
 73
4
 74
0
 40
0
 40
0
 40
0
 40
0
 40
1
 40
1
 40
1
 40
1
 10
235.118590
 20
193.493492
 30
0.0
 10
235.910174
 20
193.493492
 30
0.0
 10
236.551881
 20
192.851786
 30
0.0
 10
236.551881
 20
192.060203
 30
0.0
  0
LWPOLYLINE
  5
121
100
AcDbEntity
  8
decoupe
 62
7
100
AcDbPolyline
 90
2
 70
0
 10
218.793959
 20
211.357266
 30
0.0
 10
218.793959
 20
211.357266
 30
0.0
  0
SPLINE
  5
122
100
AcDbEntity
  8
decoupe
 62
7
100
AcDbSpline
 70
8
 71
3
 72
8
 73
4
 74
0
 40
0
 40
0
 40
0
 40
0
 40
1
 40
1
 40
1
 40
1
 10
157.968109
 20
187.847378
 30
0.0
 10
157.176525
 20
187.847378
 30
0.0
 10
156.534818
 20
188.489085
 30
0.0
 10
156.534818
 20
189.280668
 30
0.0
  0
SPLINE
  5
123
100
AcDbEntity
  8
decoupe
 62
7
100
AcDbSpline
 70
8
 71
3
 72
8
 73
4
 74
0
 40
0
 40
0
 40
0
 40
0
 40
1
 40
1
 40
1
 40
1
 10
156.534818
 20
189.280668
 30
0.0
 10
156.534818
 20
190.072252
 30
0.0
 10
157.176525
 20
190.713959
 30
0.0
 10
157.968109
 20
190.713959
 30
0.0
  0
SPLINE
  5
124
100
AcDbEntity
  8
decoupe
 62
7
100
AcDbSpline
 70
8
 71
3
 72
8
 73
4
 74
0
 40
0
 40
0
 40
0
 40
0
 40
1
 40
1
 40
1
 40
1
 10
157.968109
 20
190.713959
 30
0.0
 10
158.759692
 20
190.713959
 30
0.0
 10
159.401398
 20
190.072252
 30
0.0
 10
159.401398
 20
189.280668
 30
0.0
  0
SPLINE
  5
125
100
AcDbEntity
  8
decoupe
 62
7
100
AcDbSpline
 70
8
 71
3
 72
8
 73
4
 74
0
 40
0
 40
0
 40
0
 40
0
 40
1
 40
1
 40
1
 40
1
 10
159.401398
 20
189.280668
 30
0.0
 10
159.401398
 20
188.489085
 30
0.0
 10
158.759692
 20
187.847378
 30
0.0
 10
157.968109
 20
187.847378
 30
0.0
  0
LWPOLYLINE
  5
126
100
AcDbEntity
  8
decoupe
 62
7
100
AcDbPolyline
 90
2
 70
0
 10
236.551881
 20
192.060203
 30
0.0
 10
236.551881
 20
192.060203
 30
0.0
  0
SPLINE
  5
127
100
AcDbEntity
  8
decoupe
 62
7
100
AcDbSpline
 70
8
 71
3
 72
8
 73
4
 74
0
 40
0
 40
0
 40
0
 40
0
 40
1
 40
1
 40
1
 40
1
 10
177.265172
 20
170.075650
 30
0.0
 10
176.473588
 20
170.075650
 30
0.0
 10
175.831881
 20
170.717357
 30
0.0
 10
175.831881
 20
171.508940
 30
0.0
  0
SPLINE
  5
128
100
AcDbEntity
  8
decoupe
 62
7
100
AcDbSpline
 70
8
 71
3
 72
8
 73
4
 74
0
 40
0
 40
0
 40
0
 40
0
 40
1
 40
1
 40
1
 40
1
 10
175.831881
 20
171.508940
 30
0.0
 10
175.831881
 20
172.300524
 30
0.0
 10
176.473588
 20
172.942231
 30
0.0
 10
177.265172
 20
172.942231
 30
0.0
  0
SPLINE
  5
129
100
AcDbEntity
  8
decoupe
 62
7
100
AcDbSpline
 70
8
 71
3
 72
8
 73
4
 74
0
 40
0
 40
0
 40
0
 40
0
 40
1
 40
1
 40
1
 40
1
 10
177.265172
 20
172.942231
 30
0.0
 10
178.056755
 20
172.942231
 30
0.0
 10
178.698461
 20
172.300524
 30
0.0
 10
178.698461
 20
171.508940
 30
0.0
  0
SPLINE
  5
12a
100
AcDbEntity
  8
decoupe
 62
7
100
AcDbSpline
 70
8
 71
3
 72
8
 73
4
 74
0
 40
0
 40
0
 40
0
 40
0
 40
1
 40
1
 40
1
 40
1
 10
178.698461
 20
171.508940
 30
0.0
 10
178.698461
 20
170.717357
 30
0.0
 10
178.056755
 20
170.075650
 30
0.0
 10
177.265172
 20
170.075650
 30
0.0
  0
LWPOLYLINE
  5
12b
100
AcDbEntity
  8
decoupe
 62
7
100
AcDbPolyline
 90
2
 70
0
 10
157.968109
 20
187.847378
 30
0.0
 10
157.968109
 20
187.847378
 30
0.0
  0
LWPOLYLINE
  5
12c
100
AcDbEntity
  8
decoupe
 62
7
100
AcDbPolyline
 90
2
 70
0
 10
177.265172
 20
170.075650
 30
0.0
 10
177.265172
 20
170.075650
 30
0.0
  0
LWPOLYLINE
  5
12d
100
AcDbEntity
  8
decoupe
 62
7
100
AcDbPolyline
 90
5
 70
0
 10
288.559100
 20
125.587660
 30
0.0
 10
370.712501
 20
125.587660
 30
0.0
 10
370.712501
 20
80.434292
 30
0.0
 10
288.559100
 20
80.434292
 30
0.0
 10
288.559100
 20
125.587660
 30
0.0
  0
LWPOLYLINE
  5
12e
100
AcDbEntity
  8
decoupe
 62
7
100
AcDbPolyline
 90
5
 70
0
 10
283.559096
 20
130.587670
 30
0.0
 10
375.712505
 20
130.587670
 30
0.0
 10
375.712505
 20
75.434294
 30
0.0
 10
283.559096
 20
75.434294
 30
0.0
 10
283.559096
 20
130.587670
 30
0.0
  0
LWPOLYLINE
  5
12f
100
AcDbEntity
  8
decoupe
 62
7
100
AcDbPolyline
 90
5
 70
0
 10
288.559100
 20
64.063168
 30
0.0
 10
370.712501
 20
64.063168
 30
0.0
 10
370.712501
 20
18.909800
 30
0.0
 10
288.559100
 20
18.909800
 30
0.0
 10
288.559100
 20
64.063168
 30
0.0
  0
LWPOLYLINE
  5
130
100
AcDbEntity
  8
decoupe
 62
7
100
AcDbPolyline
 90
5
 70
0
 10
283.559096
 20
69.063178
 30
0.0
 10
375.712505
 20
69.063178
 30
0.0
 10
375.712505
 20
13.909801
 30
0.0
 10
283.559096
 20
13.909801
 30
0.0
 10
283.559096
 20
69.063178
 30
0.0
  0
LWPOLYLINE
  5
131
100
AcDbEntity
  8
decoupe
 62
1
100
AcDbPolyline
 90
6
 70
0
 10
321.508180
 20
113.543988
 30
0.0
 10
325.007566
 20
91.635201
 30
0.0
 10
335.505668
 20
101.882839
 30
0.0
 10
323.257873
 20
104.709806
 30
0.0
 10
328.506924
 20
114.250701
 30
0.0
 10
321.508180
 20
113.543988
 30
0.0
  0
LWPOLYLINE
  5
132
100
AcDbEntity
  8
decoupe
 62
1
100
AcDbPolyline
 90
5
 70
0
 10
329.859248
 20
117.208985
 30
0.0
 10
333.359622
 20
117.161374
 30
0.0
 10
330.772491
 20
114.493612
 30
0.0
 10
334.179026
 20
113.876051
 30
0.0
 10
331.650852
 20
111.563889
 30
0.0
  0
LWPOLYLINE
  5
133
100
AcDbEntity
  8
decoupe
 62
1
100
AcDbPolyline
 90
6
 70
0
 10
322.072624
 20
51.455051
 30
0.0
 10
325.572011
 20
29.546264
 30
0.0
 10
336.070113
 20
39.793903
 30
0.0
 10
323.822318
 20
42.620869
 30
0.0
 10
329.071369
 20
52.161764
 30
0.0
 10
322.072624
 20
51.455051
 30
0.0
  0
LWPOLYLINE
  5
134
100
AcDbEntity
  8
decoupe
 62
1
100
AcDbPolyline
 90
5
 70
0
 10
330.423693
 20
55.120048
 30
0.0
 10
333.924067
 20
55.072437
 30
0.0
 10
331.336936
 20
52.404675
 30
0.0
 10
334.743471
 20
51.787114
 30
0.0
 10
332.215296
 20
49.474952
 30
0.0
  0
ENDSEC
  0
SECTION
  2
OBJECTS
  0
DICTIONARY
  5
C
330
0
100
AcDbDictionary
  3
ACAD_GROUP
350
D
  3
ACAD_MLINESTYLE
350
17
  0
DICTIONARY
  5
D
330
C
100
AcDbDictionary
  0
DICTIONARY
  5
1A
330
C
100
AcDbDictionary
  0
DICTIONARY
  5
17
330
C
100
AcDbDictionary
  3
STANDARD
350
18
  0
DICTIONARY
  5
19
330
C
100
AcDbDictionary
  0
ENDSEC
  0
EOF
