  0
SECTION
  2
HEADER
  9
$ACADVER
  1
AC1014
  9
$HANDSEED
  5
FFFF
  9
$MEASUREMENT
 70
     1
  0
ENDSEC
  0
SECTION
  2
TABLES
  0
TABLE
  2
VPORT
  5
8
330
0
100
AcDbSymbolTable
 70
     4
  0
VPORT
  5
2E
330
8
100
AcDbSymbolTableRecord
100
AcDbViewportTableRecord
  2
*ACTIVE
 70
     0
 10
0.0
 20
0.0
 11
1.0
 21
1.0
 12
210.0
 22
148.5
 13
0.0
 23
0.0
 14
10.0
 24
10.0
 15
10.0
 25
10.0
 16
0.0
 26
0.0
 36
1.0
 17
0.0
 27
0.0
 37
0.0
 40
341.0
 41
1.24
 42
50.0
 43
0.0
 44
0.0
 50
0.0
 51
0.0
 71
     0
 72
   100
 73
     1
 74
     3
 75
     0
 76
     0
 77
     0
 78
     0
  0
ENDTAB
  0
TABLE
  2
LTYPE
  5
5
330
0
100
AcDbSymbolTable
 70
     1
  0
LTYPE
  5
14
330
5
100
AcDbSymbolTableRecord
100
AcDbLinetypeTableRecord
  2
BYBLOCK
 70
     0
  3

 72
    65
 73
     0
 40
0.0
  0
LTYPE
  5
15
330
5
100
AcDbSymbolTableRecord
100
AcDbLinetypeTableRecord
  2
BYLAYER
 70
     0
  3

 72
    65
 73
     0
 40
0.0
  0
LTYPE
  5
16
330
5
100
AcDbSymbolTableRecord
100
AcDbLinetypeTableRecord
  2
CONTINUOUS
 70
     0
  3
Solid line
 72
    65
 73
     0
 40
0.0
  0
ENDTAB
  0
TABLE
  2
LAYER
  5
2
100
AcDbSymbolTable
 70
2
  0
LAYER
  5
50
100
AcDbSymbolTableRecord
100
AcDbLayerTableRecord
  2
0
 70
0
  6
CONTINUOUS
  0
LAYER
  5
51
100
AcDbSymbolTableRecord
100
AcDbLayerTableRecord
  2
Calque_1
 70
0
  6
CONTINUOUS
  0
ENDTAB
  0
TABLE
  2
STYLE
  5
3
330
0
100
AcDbSymbolTable
 70
     1
  0
STYLE
  5
11
330
3
100
AcDbSymbolTableRecord
100
AcDbTextStyleTableRecord
  2
STANDARD
 70
     0
 40
0.0
 41
1.0
 50
0.0
 71
     0
 42
2.5
  3
txt
  4

  0
ENDTAB
  0
TABLE
  2
VIEW
  5
6
330
0
100
AcDbSymbolTable
 70
     0
  0
ENDTAB
  0
TABLE
  2
UCS
  5
7
330
0
100
AcDbSymbolTable
 70
     0
  0
ENDTAB
  0
TABLE
  2
APPID
  5
9
330
0
100
AcDbSymbolTable
 70
     2
  0
APPID
  5
12
330
9
100
AcDbSymbolTableRecord
100
AcDbRegAppTableRecord
  2
ACAD
 70
     0
  0
ENDTAB
  0
TABLE
  2
DIMSTYLE
  5
A
330
0
100
AcDbSymbolTable
 70
     1
  0
DIMSTYLE
105
27
330
A
100
AcDbSymbolTableRecord
100
AcDbDimStyleTableRecord
  2
ISO-25
 70
     0
  3

  4

  5

  6

  7

 40
1.0
 41
2.5
 42
0.625
 43
3.75
 44
1.25
 45
0.0
 46
0.0
 47
0.0
 48
0.0
140
2.5
141
2.5
142
0.0
143
0.03937007874016
144
1.0
145
0.0
146
1.0
147
0.625
 71
     0
 72
     0
 73
     0
 74
     0
 75
     0
 76
     0
 77
     1
 78
     8
170
     0
171
     3
172
     1
173
     0
174
     0
175
     0
176
     0
177
     0
178
     0
270
     2
271
     2
272
     2
273
     2
274
     3
340
11
275
     0
280
     0
281
     0
282
     0
283
     0
284
     8
285
     0
286
     0
287
     3
288
     0
  0
ENDTAB
  0
TABLE
  2
BLOCK_RECORD
  5
1
330
0
100
AcDbSymbolTable
 70
     1
  0
BLOCK_RECORD
  5
1F
330
1
100
AcDbSymbolTableRecord
100
AcDbBlockTableRecord
  2
*MODEL_SPACE
  0
BLOCK_RECORD
  5
1B
330
1
100
AcDbSymbolTableRecord
100
AcDbBlockTableRecord
  2
*PAPER_SPACE
  0
ENDTAB
  0
ENDSEC
  0
SECTION
  2
BLOCKS
  0
BLOCK
  5
20
330
1F
100
AcDbEntity
  8
0
100
AcDbBlockBegin
  2
*MODEL_SPACE
 70
     0
 10
0.0
 20
0.0
 30
0.0
  3
*MODEL_SPACE
  1

  0
ENDBLK
  5
21
330
1F
100
AcDbEntity
  8
0
100
AcDbBlockEnd
  0
BLOCK
  5
1C
330
1B
100
AcDbEntity
 67
     1
  8
0
100
AcDbBlockBegin
  2
*PAPER_SPACE
  1

  0
ENDBLK
  5
1D
330
1B
100
AcDbEntity
 67
     1
  8
0
100
AcDbBlockEnd
  0
ENDSEC
  0
SECTION
  2
ENTITIES
  0
LINE
  5
100
100
AcDbEntity
  8
Calque_1
 62
7
100
AcDbLine
 10
-79.022238
 20
284.999981
 30
0.0
 11
-64.022238
 21
284.999981
 31
0.0
  0
LINE
  5
101
100
AcDbEntity
  8
Calque_1
 62
7
100
AcDbLine
 10
-64.022238
 20
284.999981
 30
0.0
 11
-64.022238
 21
14.999976
 31
0.0
  0
LINE
  5
102
100
AcDbEntity
  8
Calque_1
 62
7
100
AcDbLine
 10
-64.022238
 20
14.999976
 30
0.0
 11
-79.022238
 21
14.999976
 31
0.0
  0
LINE
  5
103
100
AcDbEntity
  8
Calque_1
 62
7
100
AcDbLine
 10
-79.022238
 20
14.999976
 30
0.0
 11
-79.022238
 21
284.999981
 31
0.0
  0
LINE
  5
104
100
AcDbEntity
  8
Calque_1
 62
7
100
AcDbLine
 10
20.644425
 20
94.999949
 30
0.0
 11
70.644426
 21
94.999949
 31
0.0
  0
LINE
  5
105
100
AcDbEntity
  8
Calque_1
 62
7
100
AcDbLine
 10
70.644426
 20
94.999949
 30
0.0
 11
70.644426
 21
14.999960
 31
0.0
  0
LINE
  5
106
100
AcDbEntity
  8
Calque_1
 62
7
100
AcDbLine
 10
70.644426
 20
14.999960
 30
0.0
 11
20.644425
 21
14.999960
 31
0.0
  0
LINE
  5
107
100
AcDbEntity
  8
Calque_1
 62
7
100
AcDbLine
 10
20.644425
 20
14.999960
 30
0.0
 11
20.644425
 21
94.999949
 31
0.0
  0
LINE
  5
108
100
AcDbEntity
  8
Calque_1
 62
7
100
AcDbLine
 10
20.644425
 20
189.999937
 30
0.0
 11
70.644426
 21
189.999937
 31
0.0
  0
LINE
  5
109
100
AcDbEntity
  8
Calque_1
 62
7
100
AcDbLine
 10
70.644426
 20
189.999937
 30
0.0
 11
70.644426
 21
109.999945
 31
0.0
  0
LINE
  5
10a
100
AcDbEntity
  8
Calque_1
 62
7
100
AcDbLine
 10
70.644426
 20
109.999945
 30
0.0
 11
20.644425
 21
109.999945
 31
0.0
  0
LINE
  5
10b
100
AcDbEntity
  8
Calque_1
 62
7
100
AcDbLine
 10
20.644425
 20
109.999945
 30
0.0
 11
20.644425
 21
189.999937
 31
0.0
  0
LINE
  5
10c
100
AcDbEntity
  8
Calque_1
 62
7
100
AcDbLine
 10
20.644425
 20
284.999927
 30
0.0
 11
70.644426
 21
284.999927
 31
0.0
  0
LINE
  5
10d
100
AcDbEntity
  8
Calque_1
 62
7
100
AcDbLine
 10
70.644426
 20
284.999927
 30
0.0
 11
70.644426
 21
204.999935
 31
0.0
  0
LINE
  5
10e
100
AcDbEntity
  8
Calque_1
 62
7
100
AcDbLine
 10
70.644426
 20
204.999935
 30
0.0
 11
20.644425
 21
204.999935
 31
0.0
  0
LINE
  5
10f
100
AcDbEntity
  8
Calque_1
 62
7
100
AcDbLine
 10
20.644425
 20
204.999935
 30
0.0
 11
20.644425
 21
284.999927
 31
0.0
  0
LINE
  5
110
100
AcDbEntity
  8
Calque_1
 62
7
100
AcDbLine
 10
14.999982
 20
328.222145
 30
0.0
 11
64.999984
 21
328.222145
 31
0.0
  0
LINE
  5
111
100
AcDbEntity
  8
Calque_1
 62
7
100
AcDbLine
 10
64.999984
 20
328.222145
 30
0.0
 11
64.999984
 21
313.222147
 31
0.0
  0
LINE
  5
112
100
AcDbEntity
  8
Calque_1
 62
7
100
AcDbLine
 10
64.999984
 20
313.222147
 30
0.0
 11
14.999982
 21
313.222147
 31
0.0
  0
LINE
  5
113
100
AcDbEntity
  8
Calque_1
 62
7
100
AcDbLine
 10
14.999982
 20
313.222147
 30
0.0
 11
14.999982
 21
328.222145
 31
0.0
  0
LINE
  5
114
100
AcDbEntity
  8
Calque_1
 62
7
100
AcDbLine
 10
88.466651
 20
94.999949
 30
0.0
 11
138.466654
 21
94.999949
 31
0.0
  0
LINE
  5
115
100
AcDbEntity
  8
Calque_1
 62
7
100
AcDbLine
 10
138.466654
 20
94.999949
 30
0.0
 11
138.466654
 21
14.999960
 31
0.0
  0
LINE
  5
116
100
AcDbEntity
  8
Calque_1
 62
7
100
AcDbLine
 10
138.466654
 20
14.999960
 30
0.0
 11
88.466651
 21
14.999960
 31
0.0
  0
LINE
  5
117
100
AcDbEntity
  8
Calque_1
 62
7
100
AcDbLine
 10
88.466651
 20
14.999960
 30
0.0
 11
88.466651
 21
94.999949
 31
0.0
  0
LINE
  5
118
100
AcDbEntity
  8
Calque_1
 62
7
100
AcDbLine
 10
88.466651
 20
189.999937
 30
0.0
 11
138.466654
 21
189.999937
 31
0.0
  0
LINE
  5
119
100
AcDbEntity
  8
Calque_1
 62
7
100
AcDbLine
 10
138.466654
 20
189.999937
 30
0.0
 11
138.466654
 21
109.999945
 31
0.0
  0
LINE
  5
11a
100
AcDbEntity
  8
Calque_1
 62
7
100
AcDbLine
 10
138.466654
 20
109.999945
 30
0.0
 11
88.466651
 21
109.999945
 31
0.0
  0
LINE
  5
11b
100
AcDbEntity
  8
Calque_1
 62
7
100
AcDbLine
 10
88.466651
 20
109.999945
 30
0.0
 11
88.466651
 21
189.999937
 31
0.0
  0
LINE
  5
11c
100
AcDbEntity
  8
Calque_1
 62
7
100
AcDbLine
 10
88.466651
 20
284.999927
 30
0.0
 11
138.466654
 21
284.999927
 31
0.0
  0
LINE
  5
11d
100
AcDbEntity
  8
Calque_1
 62
7
100
AcDbLine
 10
138.466654
 20
284.999927
 30
0.0
 11
138.466654
 21
204.999935
 31
0.0
  0
LINE
  5
11e
100
AcDbEntity
  8
Calque_1
 62
7
100
AcDbLine
 10
138.466654
 20
204.999935
 30
0.0
 11
88.466651
 21
204.999935
 31
0.0
  0
LINE
  5
11f
100
AcDbEntity
  8
Calque_1
 62
7
100
AcDbLine
 10
88.466651
 20
204.999935
 30
0.0
 11
88.466651
 21
284.999927
 31
0.0
  0
LINE
  5
120
100
AcDbEntity
  8
Calque_1
 62
7
100
AcDbLine
 10
170.399982
 20
94.999949
 30
0.0
 11
220.399984
 21
94.999949
 31
0.0
  0
LINE
  5
121
100
AcDbEntity
  8
Calque_1
 62
7
100
AcDbLine
 10
220.399984
 20
94.999949
 30
0.0
 11
220.399984
 21
14.999960
 31
0.0
  0
LINE
  5
122
100
AcDbEntity
  8
Calque_1
 62
7
100
AcDbLine
 10
220.399984
 20
14.999960
 30
0.0
 11
170.399982
 21
14.999960
 31
0.0
  0
LINE
  5
123
100
AcDbEntity
  8
Calque_1
 62
7
100
AcDbLine
 10
170.399982
 20
14.999960
 30
0.0
 11
170.399982
 21
94.999949
 31
0.0
  0
LINE
  5
124
100
AcDbEntity
  8
Calque_1
 62
7
100
AcDbLine
 10
170.399982
 20
189.999937
 30
0.0
 11
220.399984
 21
189.999937
 31
0.0
  0
LINE
  5
125
100
AcDbEntity
  8
Calque_1
 62
7
100
AcDbLine
 10
220.399984
 20
189.999937
 30
0.0
 11
220.399984
 21
109.999945
 31
0.0
  0
LINE
  5
126
100
AcDbEntity
  8
Calque_1
 62
7
100
AcDbLine
 10
220.399984
 20
109.999945
 30
0.0
 11
170.399982
 21
109.999945
 31
0.0
  0
LINE
  5
127
100
AcDbEntity
  8
Calque_1
 62
7
100
AcDbLine
 10
170.399982
 20
109.999945
 30
0.0
 11
170.399982
 21
189.999937
 31
0.0
  0
LINE
  5
128
100
AcDbEntity
  8
Calque_1
 62
7
100
AcDbLine
 10
170.399982
 20
284.999927
 30
0.0
 11
220.399984
 21
284.999927
 31
0.0
  0
LINE
  5
129
100
AcDbEntity
  8
Calque_1
 62
7
100
AcDbLine
 10
220.399984
 20
284.999927
 30
0.0
 11
220.399984
 21
204.999935
 31
0.0
  0
LINE
  5
12a
100
AcDbEntity
  8
Calque_1
 62
7
100
AcDbLine
 10
220.399984
 20
204.999935
 30
0.0
 11
170.399982
 21
204.999935
 31
0.0
  0
LINE
  5
12b
100
AcDbEntity
  8
Calque_1
 62
7
100
AcDbLine
 10
170.399982
 20
204.999935
 30
0.0
 11
170.399982
 21
284.999927
 31
0.0
  0
LINE
  5
12c
100
AcDbEntity
  8
Calque_1
 62
7
100
AcDbLine
 10
238.222207
 20
94.999949
 30
0.0
 11
288.222215
 21
94.999949
 31
0.0
  0
LINE
  5
12d
100
AcDbEntity
  8
Calque_1
 62
7
100
AcDbLine
 10
288.222215
 20
94.999949
 30
0.0
 11
288.222215
 21
14.999960
 31
0.0
  0
LINE
  5
12e
100
AcDbEntity
  8
Calque_1
 62
7
100
AcDbLine
 10
288.222215
 20
14.999960
 30
0.0
 11
238.222207
 21
14.999960
 31
0.0
  0
LINE
  5
12f
100
AcDbEntity
  8
Calque_1
 62
7
100
AcDbLine
 10
238.222207
 20
14.999960
 30
0.0
 11
238.222207
 21
94.999949
 31
0.0
  0
LINE
  5
130
100
AcDbEntity
  8
Calque_1
 62
7
100
AcDbLine
 10
238.222207
 20
189.999937
 30
0.0
 11
288.222215
 21
189.999937
 31
0.0
  0
LINE
  5
131
100
AcDbEntity
  8
Calque_1
 62
7
100
AcDbLine
 10
288.222215
 20
189.999937
 30
0.0
 11
288.222215
 21
109.999945
 31
0.0
  0
LINE
  5
132
100
AcDbEntity
  8
Calque_1
 62
7
100
AcDbLine
 10
288.222215
 20
109.999945
 30
0.0
 11
238.222207
 21
109.999945
 31
0.0
  0
LINE
  5
133
100
AcDbEntity
  8
Calque_1
 62
7
100
AcDbLine
 10
238.222207
 20
109.999945
 30
0.0
 11
238.222207
 21
189.999937
 31
0.0
  0
LINE
  5
134
100
AcDbEntity
  8
Calque_1
 62
7
100
AcDbLine
 10
238.222207
 20
284.999927
 30
0.0
 11
288.222215
 21
284.999927
 31
0.0
  0
LINE
  5
135
100
AcDbEntity
  8
Calque_1
 62
7
100
AcDbLine
 10
288.222215
 20
284.999927
 30
0.0
 11
288.222215
 21
204.999935
 31
0.0
  0
LINE
  5
136
100
AcDbEntity
  8
Calque_1
 62
7
100
AcDbLine
 10
288.222215
 20
204.999935
 30
0.0
 11
238.222207
 21
204.999935
 31
0.0
  0
LINE
  5
137
100
AcDbEntity
  8
Calque_1
 62
7
100
AcDbLine
 10
238.222207
 20
204.999935
 30
0.0
 11
238.222207
 21
284.999927
 31
0.0
  0
LINE
  5
138
100
AcDbEntity
  8
Calque_1
 62
7
100
AcDbLine
 10
10.281552
 20
241.027735
 30
0.0
 11
12.555315
 21
241.027735
 31
0.0
  0
LINE
  5
139
100
AcDbEntity
  8
Calque_1
 62
7
100
AcDbLine
 10
12.555315
 20
241.027735
 30
0.0
 11
12.555315
 21
248.875661
 31
0.0
  0
LINE
  5
13a
100
AcDbEntity
  8
Calque_1
 62
7
100
AcDbLine
 10
12.555315
 20
248.875661
 30
0.0
 11
10.081737
 21
248.379568
 31
0.0
  0
LINE
  5
13b
100
AcDbEntity
  8
Calque_1
 62
7
100
AcDbLine
 10
10.081737
 20
248.379568
 30
0.0
 11
10.081737
 21
249.647364
 31
0.0
  0
LINE
  5
13c
100
AcDbEntity
  8
Calque_1
 62
7
100
AcDbLine
 10
10.081737
 20
249.647364
 30
0.0
 11
12.541534
 21
250.143457
 31
0.0
  0
LINE
  5
13d
100
AcDbEntity
  8
Calque_1
 62
7
100
AcDbLine
 10
12.541534
 20
250.143457
 30
0.0
 11
13.933353
 21
250.143457
 31
0.0
  0
LINE
  5
13e
100
AcDbEntity
  8
Calque_1
 62
7
100
AcDbLine
 10
13.933353
 20
250.143457
 30
0.0
 11
13.933353
 21
241.027735
 31
0.0
  0
LINE
  5
13f
100
AcDbEntity
  8
Calque_1
 62
7
100
AcDbLine
 10
13.933353
 20
241.027735
 30
0.0
 11
16.207115
 21
241.027735
 31
0.0
  0
LINE
  5
140
100
AcDbEntity
  8
Calque_1
 62
7
100
AcDbLine
 10
16.207115
 20
241.027735
 30
0.0
 11
16.207115
 21
239.856403
 31
0.0
  0
LINE
  5
141
100
AcDbEntity
  8
Calque_1
 62
7
100
AcDbLine
 10
16.207115
 20
239.856403
 30
0.0
 11
10.281552
 21
239.856403
 31
0.0
  0
LINE
  5
142
100
AcDbEntity
  8
Calque_1
 62
7
100
AcDbLine
 10
10.281552
 20
239.856403
 30
0.0
 11
10.281552
 21
241.027735
 31
0.0
  0
LINE
  5
143
100
AcDbEntity
  8
Calque_1
 62
7
100
AcDbLine
 10
10.281552
 20
241.027735
 30
0.0
 11
10.281552
 21
241.027735
 31
0.0
  0
LINE
  5
144
100
AcDbEntity
  8
Calque_1
 62
7
100
AcDbLine
 10
10.281552
 20
241.027735
 30
0.0
 11
12.555315
 21
241.027735
 31
0.0
  0
LINE
  5
145
100
AcDbEntity
  8
Calque_1
 62
7
100
AcDbLine
 10
12.555315
 20
241.027735
 30
0.0
 11
12.555315
 21
248.875661
 31
0.0
  0
LINE
  5
146
100
AcDbEntity
  8
Calque_1
 62
7
100
AcDbLine
 10
12.555315
 20
248.875661
 30
0.0
 11
10.081737
 21
248.379568
 31
0.0
  0
LINE
  5
147
100
AcDbEntity
  8
Calque_1
 62
7
100
AcDbLine
 10
10.081737
 20
248.379568
 30
0.0
 11
10.081737
 21
249.647364
 31
0.0
  0
LINE
  5
148
100
AcDbEntity
  8
Calque_1
 62
7
100
AcDbLine
 10
10.081737
 20
249.647364
 30
0.0
 11
12.541534
 21
250.143457
 31
0.0
  0
LINE
  5
149
100
AcDbEntity
  8
Calque_1
 62
7
100
AcDbLine
 10
12.541534
 20
250.143457
 30
0.0
 11
13.933353
 21
250.143457
 31
0.0
  0
LINE
  5
14a
100
AcDbEntity
  8
Calque_1
 62
7
100
AcDbLine
 10
13.933353
 20
250.143457
 30
0.0
 11
13.933353
 21
241.027735
 31
0.0
  0
LINE
  5
14b
100
AcDbEntity
  8
Calque_1
 62
7
100
AcDbLine
 10
13.933353
 20
241.027735
 30
0.0
 11
16.207115
 21
241.027735
 31
0.0
  0
LINE
  5
14c
100
AcDbEntity
  8
Calque_1
 62
7
100
AcDbLine
 10
16.207115
 20
241.027735
 30
0.0
 11
16.207115
 21
239.856403
 31
0.0
  0
LINE
  5
14d
100
AcDbEntity
  8
Calque_1
 62
7
100
AcDbLine
 10
16.207115
 20
239.856403
 30
0.0
 11
10.281552
 21
239.856403
 31
0.0
  0
LINE
  5
14e
100
AcDbEntity
  8
Calque_1
 62
7
100
AcDbLine
 10
10.281552
 20
239.856403
 30
0.0
 11
10.281552
 21
241.027735
 31
0.0
  0
LINE
  5
14f
100
AcDbEntity
  8
Calque_1
 62
7
100
AcDbLine
 10
10.281552
 20
241.027735
 30
0.0
 11
10.281552
 21
241.027735
 31
0.0
  0
SPLINE
  5
150
100
AcDbEntity
  8
Calque_1
 62
7
100
AcDbSpline
 70
8
 71
3
 72
8
 73
4
 74
0
 40
0
 40
0
 40
0
 40
0
 40
1
 40
1
 40
1
 40
1
 10
14.257191
 20
150.403025
 30
0.0
 10
14.923243
 20
150.260629
 30
0.0
 10
15.442304
 20
149.964351
 30
0.0
 10
15.814375
 20
149.514191
 30
0.0
  0
SPLINE
  5
151
100
AcDbEntity
  8
Calque_1
 62
7
100
AcDbSpline
 70
8
 71
3
 72
8
 73
4
 74
0
 40
0
 40
0
 40
0
 40
0
 40
1
 40
1
 40
1
 40
1
 10
15.814375
 20
149.514191
 30
0.0
 10
16.191038
 20
149.064032
 30
0.0
 10
16.379370
 20
148.508223
 30
0.0
 10
16.379370
 20
147.846766
 30
0.0
  0
SPLINE
  5
152
100
AcDbEntity
  8
Calque_1
 62
7
100
AcDbSpline
 70
8
 71
3
 72
8
 73
4
 74
0
 40
0
 40
0
 40
0
 40
0
 40
1
 40
1
 40
1
 40
1
 10
16.379370
 20
147.846766
 30
0.0
 10
16.379370
 20
146.831611
 30
0.0
 10
16.030267
 20
146.046129
 30
0.0
 10
15.332061
 20
145.490320
 30
0.0
  0
SPLINE
  5
153
100
AcDbEntity
  8
Calque_1
 62
7
100
AcDbSpline
 70
8
 71
3
 72
8
 73
4
 74
0
 40
0
 40
0
 40
0
 40
0
 40
1
 40
1
 40
1
 40
1
 10
15.332061
 20
145.490320
 30
0.0
 10
14.633855
 20
144.934512
 30
0.0
 10
13.641668
 20
144.656608
 30
0.0
 10
12.355499
 20
144.656608
 30
0.0
  0
SPLINE
  5
154
100
AcDbEntity
  8
Calque_1
 62
7
100
AcDbSpline
 70
8
 71
3
 72
8
 73
4
 74
0
 40
0
 40
0
 40
0
 40
0
 40
1
 40
1
 40
1
 40
1
 10
12.355499
 20
144.656608
 30
0.0
 10
11.923714
 20
144.656608
 30
0.0
 10
11.478148
 20
144.700246
 30
0.0
 10
11.018802
 20
144.787522
 30
0.0
  0
SPLINE
  5
155
100
AcDbEntity
  8
Calque_1
 62
7
100
AcDbSpline
 70
8
 71
3
 72
8
 73
4
 74
0
 40
0
 40
0
 40
0
 40
0
 40
1
 40
1
 40
1
 40
1
 10
11.018802
 20
144.787522
 30
0.0
 10
10.564050
 20
144.870204
 30
0.0
 10
10.093220
 20
144.996524
 30
0.0
 10
9.606313
 20
145.166482
 30
0.0
  0
LINE
  5
156
100
AcDbEntity
  8
Calque_1
 62
7
100
AcDbLine
 10
9.606313
 20
145.166482
 30
0.0
 11
9.606313
 21
146.510068
 31
0.0
  0
SPLINE
  5
157
100
AcDbEntity
  8
Calque_1
 62
7
100
AcDbSpline
 70
8
 71
3
 72
8
 73
4
 74
0
 40
0
 40
0
 40
0
 40
0
 40
1
 40
1
 40
1
 40
1
 10
9.606313
 20
146.510068
 30
0.0
 10
9.992164
 20
146.284989
 30
0.0
 10
10.414762
 20
146.115031
 30
0.0
 10
10.874108
 20
146.000194
 30
0.0
  0
SPLINE
  5
158
100
AcDbEntity
  8
Calque_1
 62
7
100
AcDbSpline
 70
8
 71
3
 72
8
 73
4
 74
0
 40
0
 40
0
 40
0
 40
0
 40
1
 40
1
 40
1
 40
1
 10
10.874108
 20
146.000194
 30
0.0
 10
11.333454
 20
145.885358
 30
0.0
 10
11.813471
 20
145.827940
 30
0.0
 10
12.314158
 20
145.827940
 30
0.0
  0
SPLINE
  5
159
100
AcDbEntity
  8
Calque_1
 62
7
100
AcDbSpline
 70
8
 71
3
 72
8
 73
4
 74
0
 40
0
 40
0
 40
0
 40
0
 40
1
 40
1
 40
1
 40
1
 10
12.314158
 20
145.827940
 30
0.0
 10
13.186915
 20
145.827940
 30
0.0
 10
13.850670
 20
146.000194
 30
0.0
 10
14.305423
 20
146.344703
 30
0.0
  0
SPLINE
  5
15a
100
AcDbEntity
  8
Calque_1
 62
7
100
AcDbSpline
 70
8
 71
3
 72
8
 73
4
 74
0
 40
0
 40
0
 40
0
 40
0
 40
1
 40
1
 40
1
 40
1
 10
14.305423
 20
146.344703
 30
0.0
 10
14.764769
 20
146.689214
 30
0.0
 10
14.994442
 20
147.189901
 30
0.0
 10
14.994442
 20
147.846766
 30
0.0
  0
SPLINE
  5
15b
100
AcDbEntity
  8
Calque_1
 62
7
100
AcDbSpline
 70
8
 71
3
 72
8
 73
4
 74
0
 40
0
 40
0
 40
0
 40
0
 40
1
 40
1
 40
1
 40
1
 10
14.994442
 20
147.846766
 30
0.0
 10
14.994442
 20
148.453101
 30
0.0
 10
14.780846
 20
148.926227
 30
0.0
 10
14.353654
 20
149.266143
 30
0.0
  0
SPLINE
  5
15c
100
AcDbEntity
  8
Calque_1
 62
7
100
AcDbSpline
 70
8
 71
3
 72
8
 73
4
 74
0
 40
0
 40
0
 40
0
 40
0
 40
1
 40
1
 40
1
 40
1
 10
14.353654
 20
149.266143
 30
0.0
 10
13.931056
 20
149.610654
 30
0.0
 10
13.340796
 20
149.782909
 30
0.0
 10
12.582875
 20
149.782909
 30
0.0
  0
LINE
  5
15d
100
AcDbEntity
  8
Calque_1
 62
7
100
AcDbLine
 10
12.582875
 20
149.782909
 30
0.0
 11
11.383982
 21
149.782909
 31
0.0
  0
LINE
  5
15e
100
AcDbEntity
  8
Calque_1
 62
7
100
AcDbLine
 10
11.383982
 20
149.782909
 30
0.0
 11
11.383982
 21
150.926680
 31
0.0
  0
LINE
  5
15f
100
AcDbEntity
  8
Calque_1
 62
7
100
AcDbLine
 10
11.383982
 20
150.926680
 30
0.0
 11
12.637997
 21
150.926680
 31
0.0
  0
SPLINE
  5
160
100
AcDbEntity
  8
Calque_1
 62
7
100
AcDbSpline
 70
8
 71
3
 72
8
 73
4
 74
0
 40
0
 40
0
 40
0
 40
0
 40
1
 40
1
 40
1
 40
1
 10
12.637997
 20
150.926680
 30
0.0
 10
13.322422
 20
150.926680
 30
0.0
 10
13.846077
 20
151.062187
 30
0.0
 10
14.208960
 20
151.333201
 30
0.0
  0
SPLINE
  5
161
100
AcDbEntity
  8
Calque_1
 62
7
100
AcDbSpline
 70
8
 71
3
 72
8
 73
4
 74
0
 40
0
 40
0
 40
0
 40
0
 40
1
 40
1
 40
1
 40
1
 10
14.208960
 20
151.333201
 30
0.0
 10
14.571844
 20
151.608808
 30
0.0
 10
14.753285
 20
152.003846
 30
0.0
 10
14.753285
 20
152.518314
 30
0.0
  0
SPLINE
  5
162
100
AcDbEntity
  8
Calque_1
 62
7
100
AcDbSpline
 70
8
 71
3
 72
8
 73
4
 74
0
 40
0
 40
0
 40
0
 40
0
 40
1
 40
1
 40
1
 40
1
 10
14.753285
 20
152.518314
 30
0.0
 10
14.753285
 20
153.046563
 30
0.0
 10
14.564953
 20
153.450787
 30
0.0
 10
14.188290
 20
153.730986
 30
0.0
  0
SPLINE
  5
163
100
AcDbEntity
  8
Calque_1
 62
7
100
AcDbSpline
 70
8
 71
3
 72
8
 73
4
 74
0
 40
0
 40
0
 40
0
 40
0
 40
1
 40
1
 40
1
 40
1
 10
14.188290
 20
153.730986
 30
0.0
 10
13.816219
 20
154.015782
 30
0.0
 10
13.281081
 20
154.158180
 30
0.0
 10
12.582875
 20
154.158180
 30
0.0
  0
SPLINE
  5
164
100
AcDbEntity
  8
Calque_1
 62
7
100
AcDbSpline
 70
8
 71
3
 72
8
 73
4
 74
0
 40
0
 40
0
 40
0
 40
0
 40
1
 40
1
 40
1
 40
1
 10
12.582875
 20
154.158180
 30
0.0
 10
12.201618
 20
154.158180
 30
0.0
 10
11.792800
 20
154.116839
 30
0.0
 10
11.356422
 20
154.034155
 30
0.0
  0
SPLINE
  5
165
100
AcDbEntity
  8
Calque_1
 62
7
100
AcDbSpline
 70
8
 71
3
 72
8
 73
4
 74
0
 40
0
 40
0
 40
0
 40
0
 40
1
 40
1
 40
1
 40
1
 10
11.356422
 20
154.034155
 30
0.0
 10
10.920043
 20
153.951473
 30
0.0
 10
10.440026
 20
153.822856
 30
0.0
 10
9.916372
 20
153.648304
 30
0.0
  0
LINE
  5
166
100
AcDbEntity
  8
Calque_1
 62
7
100
AcDbLine
 10
9.916372
 20
153.648304
 30
0.0
 11
9.916372
 21
154.888540
 31
0.0
  0
SPLINE
  5
167
100
AcDbEntity
  8
Calque_1
 62
7
100
AcDbSpline
 70
8
 71
3
 72
8
 73
4
 74
0
 40
0
 40
0
 40
0
 40
0
 40
1
 40
1
 40
1
 40
1
 10
9.916372
 20
154.888540
 30
0.0
 10
10.444620
 20
155.035531
 30
0.0
 10
10.938417
 20
155.145774
 30
0.0
 10
11.397763
 20
155.219268
 30
0.0
  0
SPLINE
  5
168
100
AcDbEntity
  8
Calque_1
 62
7
100
AcDbSpline
 70
8
 71
3
 72
8
 73
4
 74
0
 40
0
 40
0
 40
0
 40
0
 40
1
 40
1
 40
1
 40
1
 10
11.397763
 20
155.219268
 30
0.0
 10
11.861702
 20
155.292765
 30
0.0
 10
12.298081
 20
155.329513
 30
0.0
 10
12.706899
 20
155.329513
 30
0.0
  0
SPLINE
  5
169
100
AcDbEntity
  8
Calque_1
 62
7
100
AcDbSpline
 70
8
 71
3
 72
8
 73
4
 74
0
 40
0
 40
0
 40
0
 40
0
 40
1
 40
1
 40
1
 40
1
 10
12.706899
 20
155.329513
 30
0.0
 10
13.763395
 20
155.329513
 30
0.0
 10
14.599404
 20
155.088356
 30
0.0
 10
15.214928
 20
154.606042
 30
0.0
  0
SPLINE
  5
16a
100
AcDbEntity
  8
Calque_1
 62
7
100
AcDbSpline
 70
8
 71
3
 72
8
 73
4
 74
0
 40
0
 40
0
 40
0
 40
0
 40
1
 40
1
 40
1
 40
1
 10
15.214928
 20
154.606042
 30
0.0
 10
15.830452
 20
154.128322
 30
0.0
 10
16.138213
 20
153.480644
 30
0.0
 10
16.138213
 20
152.663007
 30
0.0
  0
SPLINE
  5
16b
100
AcDbEntity
  8
Calque_1
 62
7
100
AcDbSpline
 70
8
 71
3
 72
8
 73
4
 74
0
 40
0
 40
0
 40
0
 40
0
 40
1
 40
1
 40
1
 40
1
 10
16.138213
 20
152.663007
 30
0.0
 10
16.138213
 20
152.093418
 30
0.0
 10
15.975146
 20
151.611105
 30
0.0
 10
15.649010
 20
151.216067
 30
0.0
  0
SPLINE
  5
16c
100
AcDbEntity
  8
Calque_1
 62
7
100
AcDbSpline
 70
8
 71
3
 72
8
 73
4
 74
0
 40
0
 40
0
 40
0
 40
0
 40
1
 40
1
 40
1
 40
1
 10
15.649010
 20
151.216067
 30
0.0
 10
15.322874
 20
150.825624
 30
0.0
 10
14.858935
 20
150.554610
 30
0.0
 10
14.257191
 20
150.403025
 30
0.0
  0
LINE
  5
16d
100
AcDbEntity
  8
Calque_1
 62
7
100
AcDbLine
 10
14.257191
 20
150.403025
 30
0.0
 11
14.257191
 21
150.403025
 31
0.0
  0
LINE
  5
16e
100
AcDbEntity
  8
Calque_1
 62
7
100
AcDbLine
 10
10.054176
 20
60.143487
 30
0.0
 11
15.518096
 21
60.143487
 31
0.0
  0
LINE
  5
16f
100
AcDbEntity
  8
Calque_1
 62
7
100
AcDbLine
 10
15.518096
 20
60.143487
 30
0.0
 11
15.518096
 21
58.972155
 31
0.0
  0
LINE
  5
170
100
AcDbEntity
  8
Calque_1
 62
7
100
AcDbLine
 10
15.518096
 20
58.972155
 30
0.0
 11
11.328861
 21
58.972155
 31
0.0
  0
LINE
  5
171
100
AcDbEntity
  8
Calque_1
 62
7
100
AcDbLine
 10
11.328861
 20
58.972155
 30
0.0
 11
11.328861
 21
56.450344
 31
0.0
  0
SPLINE
  5
172
100
AcDbEntity
  8
Calque_1
 62
7
100
AcDbSpline
 70
8
 71
3
 72
8
 73
4
 74
0
 40
0
 40
0
 40
0
 40
0
 40
1
 40
1
 40
1
 40
1
 10
11.328861
 20
56.450344
 30
0.0
 10
11.530973
 20
56.519247
 30
0.0
 10
11.733085
 20
56.569776
 30
0.0
 10
11.935198
 20
56.601928
 30
0.0
  0
SPLINE
  5
173
100
AcDbEntity
  8
Calque_1
 62
7
100
AcDbSpline
 70
8
 71
3
 72
8
 73
4
 74
0
 40
0
 40
0
 40
0
 40
0
 40
1
 40
1
 40
1
 40
1
 10
11.935198
 20
56.601928
 30
0.0
 10
12.137310
 20
56.638677
 30
0.0
 10
12.339422
 20
56.657052
 30
0.0
 10
12.541534
 20
56.657052
 30
0.0
  0
SPLINE
  5
174
100
AcDbEntity
  8
Calque_1
 62
7
100
AcDbSpline
 70
8
 71
3
 72
8
 73
4
 74
0
 40
0
 40
0
 40
0
 40
0
 40
1
 40
1
 40
1
 40
1
 10
12.541534
 20
56.657052
 30
0.0
 10
13.689899
 20
56.657052
 30
0.0
 10
14.599404
 20
56.342399
 30
0.0
 10
15.270049
 20
55.713095
 30
0.0
  0
SPLINE
  5
175
100
AcDbEntity
  8
Calque_1
 62
7
100
AcDbSpline
 70
8
 71
3
 72
8
 73
4
 74
0
 40
0
 40
0
 40
0
 40
0
 40
1
 40
1
 40
1
 40
1
 10
15.270049
 20
55.713095
 30
0.0
 10
15.940695
 20
55.083790
 30
0.0
 10
16.276017
 20
54.231703
 30
0.0
 10
16.276017
 20
53.156833
 30
0.0
  0
SPLINE
  5
176
100
AcDbEntity
  8
Calque_1
 62
7
100
AcDbSpline
 70
8
 71
3
 72
8
 73
4
 74
0
 40
0
 40
0
 40
0
 40
0
 40
1
 40
1
 40
1
 40
1
 10
16.276017
 20
53.156833
 30
0.0
 10
16.276017
 20
52.049811
 30
0.0
 10
15.931508
 20
51.188537
 30
0.0
 10
15.242489
 20
50.573012
 30
0.0
  0
SPLINE
  5
177
100
AcDbEntity
  8
Calque_1
 62
7
100
AcDbSpline
 70
8
 71
3
 72
8
 73
4
 74
0
 40
0
 40
0
 40
0
 40
0
 40
1
 40
1
 40
1
 40
1
 10
15.242489
 20
50.573012
 30
0.0
 10
14.553470
 20
49.962082
 30
0.0
 10
13.581953
 20
49.656617
 30
0.0
 10
12.327938
 20
49.656617
 30
0.0
  0
SPLINE
  5
178
100
AcDbEntity
  8
Calque_1
 62
7
100
AcDbSpline
 70
8
 71
3
 72
8
 73
4
 74
0
 40
0
 40
0
 40
0
 40
0
 40
1
 40
1
 40
1
 40
1
 10
12.327938
 20
49.656617
 30
0.0
 10
11.896153
 20
49.656617
 30
0.0
 10
11.455181
 20
49.693365
 30
0.0
 10
11.005022
 20
49.766862
 30
0.0
  0
SPLINE
  5
179
100
AcDbEntity
  8
Calque_1
 62
7
100
AcDbSpline
 70
8
 71
3
 72
8
 73
4
 74
0
 40
0
 40
0
 40
0
 40
0
 40
1
 40
1
 40
1
 40
1
 10
11.005022
 20
49.766862
 30
0.0
 10
10.559456
 20
49.840356
 30
0.0
 10
10.097814
 20
49.950599
 30
0.0
 10
9.620094
 20
50.097589
 30
0.0
  0
LINE
  5
17a
100
AcDbEntity
  8
Calque_1
 62
7
100
AcDbLine
 10
9.620094
 20
50.097589
 30
0.0
 11
9.620094
 21
51.496300
 31
0.0
  0
SPLINE
  5
17b
100
AcDbEntity
  8
Calque_1
 62
7
100
AcDbSpline
 70
8
 71
3
 72
8
 73
4
 74
0
 40
0
 40
0
 40
0
 40
0
 40
1
 40
1
 40
1
 40
1
 10
9.620094
 20
51.496300
 30
0.0
 10
10.033505
 20
51.271220
 30
0.0
 10
10.460697
 20
51.103558
 30
0.0
 10
10.901669
 20
50.993315
 30
0.0
  0
SPLINE
  5
17c
100
AcDbEntity
  8
Calque_1
 62
7
100
AcDbSpline
 70
8
 71
3
 72
8
 73
4
 74
0
 40
0
 40
0
 40
0
 40
0
 40
1
 40
1
 40
1
 40
1
 10
10.901669
 20
50.993315
 30
0.0
 10
11.342641
 20
50.883071
 30
0.0
 10
11.808877
 20
50.827949
 30
0.0
 10
12.300378
 20
50.827949
 30
0.0
  0
SPLINE
  5
17d
100
AcDbEntity
  8
Calque_1
 62
7
100
AcDbSpline
 70
8
 71
3
 72
8
 73
4
 74
0
 40
0
 40
0
 40
0
 40
0
 40
1
 40
1
 40
1
 40
1
 10
12.300378
 20
50.827949
 30
0.0
 10
13.095046
 20
50.827949
 30
0.0
 10
13.724350
 20
51.036952
 30
0.0
 10
14.188290
 20
51.454957
 30
0.0
  0
SPLINE
  5
17e
100
AcDbEntity
  8
Calque_1
 62
7
100
AcDbSpline
 70
8
 71
3
 72
8
 73
4
 74
0
 40
0
 40
0
 40
0
 40
0
 40
1
 40
1
 40
1
 40
1
 10
14.188290
 20
51.454957
 30
0.0
 10
14.652229
 20
51.872962
 30
0.0
 10
14.884199
 20
52.440254
 30
0.0
 10
14.884199
 20
53.156833
 30
0.0
  0
SPLINE
  5
17f
100
AcDbEntity
  8
Calque_1
 62
7
100
AcDbSpline
 70
8
 71
3
 72
8
 73
4
 74
0
 40
0
 40
0
 40
0
 40
0
 40
1
 40
1
 40
1
 40
1
 10
14.884199
 20
53.156833
 30
0.0
 10
14.884199
 20
53.873414
 30
0.0
 10
14.652229
 20
54.440707
 30
0.0
 10
14.188290
 20
54.858712
 30
0.0
  0
SPLINE
  5
180
100
AcDbEntity
  8
Calque_1
 62
7
100
AcDbSpline
 70
8
 71
3
 72
8
 73
4
 74
0
 40
0
 40
0
 40
0
 40
0
 40
1
 40
1
 40
1
 40
1
 10
14.188290
 20
54.858712
 30
0.0
 10
13.724350
 20
55.276717
 30
0.0
 10
13.095046
 20
55.485720
 30
0.0
 10
12.300378
 20
55.485720
 30
0.0
  0
SPLINE
  5
181
100
AcDbEntity
  8
Calque_1
 62
7
100
AcDbSpline
 70
8
 71
3
 72
8
 73
4
 74
0
 40
0
 40
0
 40
0
 40
0
 40
1
 40
1
 40
1
 40
1
 10
12.300378
 20
55.485720
 30
0.0
 10
11.928307
 20
55.485720
 30
0.0
 10
11.556237
 20
55.444378
 30
0.0
 10
11.184167
 20
55.361694
 30
0.0
  0
SPLINE
  5
182
100
AcDbEntity
  8
Calque_1
 62
7
100
AcDbSpline
 70
8
 71
3
 72
8
 73
4
 74
0
 40
0
 40
0
 40
0
 40
0
 40
1
 40
1
 40
1
 40
1
 10
11.184167
 20
55.361694
 30
0.0
 10
10.816690
 20
55.279012
 30
0.0
 10
10.440026
 20
55.150396
 30
0.0
 10
10.054176
 20
54.975846
 30
0.0
  0
LINE
  5
183
100
AcDbEntity
  8
Calque_1
 62
7
100
AcDbLine
 10
10.054176
 20
54.975846
 30
0.0
 11
10.054176
 21
60.143487
 31
0.0
  0
LINE
  5
184
100
AcDbEntity
  8
Calque_1
 62
7
100
AcDbLine
 10
10.054176
 20
60.143487
 30
0.0
 11
10.054176
 21
60.143487
 31
0.0
  0
LINE
  5
185
100
AcDbEntity
  8
Calque_1
 62
7
100
AcDbLine
 10
79.547713
 20
241.027735
 30
0.0
 11
84.405296
 21
241.027735
 31
0.0
  0
LINE
  5
186
100
AcDbEntity
  8
Calque_1
 62
7
100
AcDbLine
 10
84.405296
 20
241.027735
 30
0.0
 11
84.405296
 21
239.856403
 31
0.0
  0
LINE
  5
187
100
AcDbEntity
  8
Calque_1
 62
7
100
AcDbLine
 10
84.405296
 20
239.856403
 30
0.0
 11
77.873399
 21
239.856403
 31
0.0
  0
LINE
  5
188
100
AcDbEntity
  8
Calque_1
 62
7
100
AcDbLine
 10
77.873399
 20
239.856403
 30
0.0
 11
77.873399
 21
241.027735
 31
0.0
  0
SPLINE
  5
189
100
AcDbEntity
  8
Calque_1
 62
7
100
AcDbSpline
 70
8
 71
3
 72
8
 73
4
 74
0
 40
0
 40
0
 40
0
 40
0
 40
1
 40
1
 40
1
 40
1
 10
77.873399
 20
241.027735
 30
0.0
 10
78.401645
 20
241.574357
 30
0.0
 10
79.120522
 20
242.307014
 30
0.0
 10
80.030028
 20
243.225708
 30
0.0
  0
SPLINE
  5
18a
100
AcDbEntity
  8
Calque_1
 62
7
100
AcDbSpline
 70
8
 71
3
 72
8
 73
4
 74
0
 40
0
 40
0
 40
0
 40
0
 40
1
 40
1
 40
1
 40
1
 10
80.030028
 20
243.225708
 30
0.0
 10
80.944125
 20
244.148992
 30
0.0
 10
81.518307
 20
244.743845
 30
0.0
 10
81.752574
 20
245.010266
 30
0.0
  0
SPLINE
  5
18b
100
AcDbEntity
  8
Calque_1
 62
7
100
AcDbSpline
 70
8
 71
3
 72
8
 73
4
 74
0
 40
0
 40
0
 40
0
 40
0
 40
1
 40
1
 40
1
 40
1
 10
81.752574
 20
245.010266
 30
0.0
 10
82.198139
 20
245.510953
 30
0.0
 10
82.508198
 20
245.933551
 30
0.0
 10
82.682750
 20
246.278059
 30
0.0
  0
SPLINE
  5
18c
100
AcDbEntity
  8
Calque_1
 62
7
100
AcDbSpline
 70
8
 71
3
 72
8
 73
4
 74
0
 40
0
 40
0
 40
0
 40
0
 40
1
 40
1
 40
1
 40
1
 10
82.682750
 20
246.278059
 30
0.0
 10
82.861896
 20
246.627163
 30
0.0
 10
82.951468
 20
246.969376
 30
0.0
 10
82.951468
 20
247.304699
 30
0.0
  0
SPLINE
  5
18d
100
AcDbEntity
  8
Calque_1
 62
7
100
AcDbSpline
 70
8
 71
3
 72
8
 73
4
 74
0
 40
0
 40
0
 40
0
 40
0
 40
1
 40
1
 40
1
 40
1
 10
82.951468
 20
247.304699
 30
0.0
 10
82.951468
 20
247.851320
 30
0.0
 10
82.758543
 20
248.296886
 30
0.0
 10
82.372693
 20
248.641397
 30
0.0
  0
SPLINE
  5
18e
100
AcDbEntity
  8
Calque_1
 62
7
100
AcDbSpline
 70
8
 71
3
 72
8
 73
4
 74
0
 40
0
 40
0
 40
0
 40
0
 40
1
 40
1
 40
1
 40
1
 10
82.372693
 20
248.641397
 30
0.0
 10
81.991435
 20
248.985905
 30
0.0
 10
81.493044
 20
249.158160
 30
0.0
 10
80.877522
 20
249.158160
 30
0.0
  0
SPLINE
  5
18f
100
AcDbEntity
  8
Calque_1
 62
7
100
AcDbSpline
 70
8
 71
3
 72
8
 73
4
 74
0
 40
0
 40
0
 40
0
 40
0
 40
1
 40
1
 40
1
 40
1
 10
80.877522
 20
249.158160
 30
0.0
 10
80.441142
 20
249.158160
 30
0.0
 10
79.979499
 20
249.082368
 30
0.0
 10
79.492592
 20
248.930785
 30
0.0
  0
SPLINE
  5
190
100
AcDbEntity
  8
Calque_1
 62
7
100
AcDbSpline
 70
8
 71
3
 72
8
 73
4
 74
0
 40
0
 40
0
 40
0
 40
0
 40
1
 40
1
 40
1
 40
1
 10
79.492592
 20
248.930785
 30
0.0
 10
79.010278
 20
248.779199
 30
0.0
 10
78.493514
 20
248.549526
 30
0.0
 10
77.942300
 20
248.241764
 30
0.0
  0
LINE
  5
191
100
AcDbEntity
  8
Calque_1
 62
7
100
AcDbLine
 10
77.942300
 20
248.241764
 30
0.0
 11
77.942300
 21
249.647364
 31
0.0
  0
SPLINE
  5
192
100
AcDbEntity
  8
Calque_1
 62
7
100
AcDbSpline
 70
8
 71
3
 72
8
 73
4
 74
0
 40
0
 40
0
 40
0
 40
0
 40
1
 40
1
 40
1
 40
1
 10
77.942300
 20
249.647364
 30
0.0
 10
78.502701
 20
249.872444
 30
0.0
 10
79.026355
 20
250.042401
 30
0.0
 10
79.513262
 20
250.157238
 30
0.0
  0
SPLINE
  5
193
100
AcDbEntity
  8
Calque_1
 62
7
100
AcDbSpline
 70
8
 71
3
 72
8
 73
4
 74
0
 40
0
 40
0
 40
0
 40
0
 40
1
 40
1
 40
1
 40
1
 10
79.513262
 20
250.157238
 30
0.0
 10
80.000169
 20
250.272074
 30
0.0
 10
80.445735
 20
250.329492
 30
0.0
 10
80.849960
 20
250.329492
 30
0.0
  0
SPLINE
  5
194
100
AcDbEntity
  8
Calque_1
 62
7
100
AcDbSpline
 70
8
 71
3
 72
8
 73
4
 74
0
 40
0
 40
0
 40
0
 40
0
 40
1
 40
1
 40
1
 40
1
 10
80.849960
 20
250.329492
 30
0.0
 10
81.915642
 20
250.329492
 30
0.0
 10
82.765432
 20
250.063071
 30
0.0
 10
83.399329
 20
249.530230
 30
0.0
  0
SPLINE
  5
195
100
AcDbEntity
  8
Calque_1
 62
7
100
AcDbSpline
 70
8
 71
3
 72
8
 73
4
 74
0
 40
0
 40
0
 40
0
 40
0
 40
1
 40
1
 40
1
 40
1
 10
83.399329
 20
249.530230
 30
0.0
 10
84.033227
 20
248.997389
 30
0.0
 10
84.350176
 20
248.285403
 30
0.0
 10
84.350176
 20
247.394271
 30
0.0
  0
SPLINE
  5
196
100
AcDbEntity
  8
Calque_1
 62
7
100
AcDbSpline
 70
8
 71
3
 72
8
 73
4
 74
0
 40
0
 40
0
 40
0
 40
0
 40
1
 40
1
 40
1
 40
1
 10
84.350176
 20
247.394271
 30
0.0
 10
84.350176
 20
246.971673
 30
0.0
 10
84.269790
 20
246.569745
 30
0.0
 10
84.109020
 20
246.188488
 30
0.0
  0
SPLINE
  5
197
100
AcDbEntity
  8
Calque_1
 62
7
100
AcDbSpline
 70
8
 71
3
 72
8
 73
4
 74
0
 40
0
 40
0
 40
0
 40
0
 40
1
 40
1
 40
1
 40
1
 10
84.109020
 20
246.188488
 30
0.0
 10
83.952842
 20
245.811825
 30
0.0
 10
83.665750
 20
245.366259
 30
0.0
 10
83.247745
 20
244.851790
 30
0.0
  0
SPLINE
  5
198
100
AcDbEntity
  8
Calque_1
 62
7
100
AcDbSpline
 70
8
 71
3
 72
8
 73
4
 74
0
 40
0
 40
0
 40
0
 40
0
 40
1
 40
1
 40
1
 40
1
 10
83.247745
 20
244.851790
 30
0.0
 10
83.132909
 20
244.718581
 30
0.0
 10
82.767729
 20
244.332731
 30
0.0
 10
82.152206
 20
243.694239
 30
0.0
  0
SPLINE
  5
199
100
AcDbEntity
  8
Calque_1
 62
7
100
AcDbSpline
 70
8
 71
3
 72
8
 73
4
 74
0
 40
0
 40
0
 40
0
 40
0
 40
1
 40
1
 40
1
 40
1
 10
82.152206
 20
243.694239
 30
0.0
 10
81.536682
 20
243.060341
 30
0.0
 10
80.668517
 20
242.171507
 30
0.0
 10
79.547713
 20
241.027735
 30
0.0
  0
LINE
  5
19a
100
AcDbEntity
  8
Calque_1
 62
7
100
AcDbLine
 10
79.547713
 20
241.027735
 30
0.0
 11
79.547713
 21
241.027735
 31
0.0
  0
LINE
  5
19b
100
AcDbEntity
  8
Calque_1
 62
7
100
AcDbLine
 10
82.172876
 20
153.930802
 30
0.0
 11
78.658880
 21
148.439322
 31
0.0
  0
LINE
  5
19c
100
AcDbEntity
  8
Calque_1
 62
7
100
AcDbLine
 10
78.658880
 20
148.439322
 30
0.0
 11
82.172876
 21
148.439322
 31
0.0
  0
LINE
  5
19d
100
AcDbEntity
  8
Calque_1
 62
7
100
AcDbLine
 10
82.172876
 20
148.439322
 30
0.0
 11
82.172876
 21
153.930802
 31
0.0
  0
LINE
  5
19e
100
AcDbEntity
  8
Calque_1
 62
7
100
AcDbLine
 10
82.172876
 20
153.930802
 30
0.0
 11
82.172876
 21
153.930802
 31
0.0
  0
LINE
  5
19f
100
AcDbEntity
  8
Calque_1
 62
7
100
AcDbLine
 10
81.807695
 20
155.143477
 30
0.0
 11
83.557803
 21
155.143477
 31
0.0
  0
LINE
  5
1a0
100
AcDbEntity
  8
Calque_1
 62
7
100
AcDbLine
 10
83.557803
 20
155.143477
 30
0.0
 11
83.557803
 21
148.439322
 31
0.0
  0
LINE
  5
1a1
100
AcDbEntity
  8
Calque_1
 62
7
100
AcDbLine
 10
83.557803
 20
148.439322
 30
0.0
 11
85.025415
 21
148.439322
 31
0.0
  0
LINE
  5
1a2
100
AcDbEntity
  8
Calque_1
 62
7
100
AcDbLine
 10
85.025415
 20
148.439322
 30
0.0
 11
85.025415
 21
147.281768
 31
0.0
  0
LINE
  5
1a3
100
AcDbEntity
  8
Calque_1
 62
7
100
AcDbLine
 10
85.025415
 20
147.281768
 30
0.0
 11
83.557803
 21
147.281768
 31
0.0
  0
LINE
  5
1a4
100
AcDbEntity
  8
Calque_1
 62
7
100
AcDbLine
 10
83.557803
 20
147.281768
 30
0.0
 11
83.557803
 21
144.856424
 31
0.0
  0
LINE
  5
1a5
100
AcDbEntity
  8
Calque_1
 62
7
100
AcDbLine
 10
83.557803
 20
144.856424
 30
0.0
 11
82.172876
 21
144.856424
 31
0.0
  0
LINE
  5
1a6
100
AcDbEntity
  8
Calque_1
 62
7
100
AcDbLine
 10
82.172876
 20
144.856424
 30
0.0
 11
82.172876
 21
147.281768
 31
0.0
  0
LINE
  5
1a7
100
AcDbEntity
  8
Calque_1
 62
7
100
AcDbLine
 10
82.172876
 20
147.281768
 30
0.0
 11
77.528887
 21
147.281768
 31
0.0
  0
LINE
  5
1a8
100
AcDbEntity
  8
Calque_1
 62
7
100
AcDbLine
 10
77.528887
 20
147.281768
 30
0.0
 11
77.528887
 21
148.625358
 31
0.0
  0
LINE
  5
1a9
100
AcDbEntity
  8
Calque_1
 62
7
100
AcDbLine
 10
77.528887
 20
148.625358
 30
0.0
 11
81.807695
 21
155.143477
 31
0.0
  0
LINE
  5
1aa
100
AcDbEntity
  8
Calque_1
 62
7
100
AcDbLine
 10
81.807695
 20
155.143477
 30
0.0
 11
81.807695
 21
155.143477
 31
0.0
  0
SPLINE
  5
1ab
100
AcDbEntity
  8
Calque_1
 62
7
100
AcDbSpline
 70
8
 71
3
 72
8
 73
4
 74
0
 40
0
 40
0
 40
0
 40
0
 40
1
 40
1
 40
1
 40
1
 10
81.497637
 20
55.554621
 30
0.0
 10
80.872927
 20
55.554621
 30
0.0
 10
80.376833
 20
55.341025
 30
0.0
 10
80.009355
 20
54.913833
 30
0.0
  0
SPLINE
  5
1ac
100
AcDbEntity
  8
Calque_1
 62
7
100
AcDbSpline
 70
8
 71
3
 72
8
 73
4
 74
0
 40
0
 40
0
 40
0
 40
0
 40
1
 40
1
 40
1
 40
1
 10
80.009355
 20
54.913833
 30
0.0
 10
79.646472
 20
54.486641
 30
0.0
 10
79.465030
 20
53.900974
 30
0.0
 10
79.465030
 20
53.156833
 30
0.0
  0
SPLINE
  5
1ad
100
AcDbEntity
  8
Calque_1
 62
7
100
AcDbSpline
 70
8
 71
3
 72
8
 73
4
 74
0
 40
0
 40
0
 40
0
 40
0
 40
1
 40
1
 40
1
 40
1
 10
79.465030
 20
53.156833
 30
0.0
 10
79.465030
 20
52.417287
 30
0.0
 10
79.646472
 20
51.831621
 30
0.0
 10
80.009355
 20
51.399836
 30
0.0
  0
SPLINE
  5
1ae
100
AcDbEntity
  8
Calque_1
 62
7
100
AcDbSpline
 70
8
 71
3
 72
8
 73
4
 74
0
 40
0
 40
0
 40
0
 40
0
 40
1
 40
1
 40
1
 40
1
 10
80.009355
 20
51.399836
 30
0.0
 10
80.376833
 20
50.972644
 30
0.0
 10
80.872927
 20
50.759048
 30
0.0
 10
81.497637
 20
50.759048
 30
0.0
  0
SPLINE
  5
1af
100
AcDbEntity
  8
Calque_1
 62
7
100
AcDbSpline
 70
8
 71
3
 72
8
 73
4
 74
0
 40
0
 40
0
 40
0
 40
0
 40
1
 40
1
 40
1
 40
1
 10
81.497637
 20
50.759048
 30
0.0
 10
82.122347
 20
50.759048
 30
0.0
 10
82.616144
 20
50.972644
 30
0.0
 10
82.979027
 20
51.399836
 30
0.0
  0
SPLINE
  5
1b0
100
AcDbEntity
  8
Calque_1
 62
7
100
AcDbSpline
 70
8
 71
3
 72
8
 73
4
 74
0
 40
0
 40
0
 40
0
 40
0
 40
1
 40
1
 40
1
 40
1
 10
82.979027
 20
51.399836
 30
0.0
 10
83.346505
 20
51.831621
 30
0.0
 10
83.530244
 20
52.417287
 30
0.0
 10
83.530244
 20
53.156833
 30
0.0
  0
SPLINE
  5
1b1
100
AcDbEntity
  8
Calque_1
 62
7
100
AcDbSpline
 70
8
 71
3
 72
8
 73
4
 74
0
 40
0
 40
0
 40
0
 40
0
 40
1
 40
1
 40
1
 40
1
 10
83.530244
 20
53.156833
 30
0.0
 10
83.530244
 20
53.900974
 30
0.0
 10
83.346505
 20
54.486641
 30
0.0
 10
82.979027
 20
54.913833
 30
0.0
  0
SPLINE
  5
1b2
100
AcDbEntity
  8
Calque_1
 62
7
100
AcDbSpline
 70
8
 71
3
 72
8
 73
4
 74
0
 40
0
 40
0
 40
0
 40
0
 40
1
 40
1
 40
1
 40
1
 10
82.979027
 20
54.913833
 30
0.0
 10
82.616144
 20
55.341025
 30
0.0
 10
82.122347
 20
55.554621
 30
0.0
 10
81.497637
 20
55.554621
 30
0.0
  0
LINE
  5
1b3
100
AcDbEntity
  8
Calque_1
 62
7
100
AcDbLine
 10
81.497637
 20
55.554621
 30
0.0
 11
81.497637
 21
55.554621
 31
0.0
  0
LINE
  5
1b4
100
AcDbEntity
  8
Calque_1
 62
7
100
AcDbLine
 10
84.260604
 20
59.916112
 30
0.0
 11
84.260604
 21
58.648316
 31
0.0
  0
SPLINE
  5
1b5
100
AcDbEntity
  8
Calque_1
 62
7
100
AcDbSpline
 70
8
 71
3
 72
8
 73
4
 74
0
 40
0
 40
0
 40
0
 40
0
 40
1
 40
1
 40
1
 40
1
 10
84.260604
 20
58.648316
 30
0.0
 10
83.911501
 20
58.813681
 30
0.0
 10
83.557804
 20
58.940001
 30
0.0
 10
83.199513
 20
59.027275
 30
0.0
  0
SPLINE
  5
1b6
100
AcDbEntity
  8
Calque_1
 62
7
100
AcDbSpline
 70
8
 71
3
 72
8
 73
4
 74
0
 40
0
 40
0
 40
0
 40
0
 40
1
 40
1
 40
1
 40
1
 10
83.199513
 20
59.027275
 30
0.0
 10
82.845817
 20
59.114552
 30
0.0
 10
82.494418
 20
59.158190
 30
0.0
 10
82.145315
 20
59.158190
 30
0.0
  0
SPLINE
  5
1b7
100
AcDbEntity
  8
Calque_1
 62
7
100
AcDbSpline
 70
8
 71
3
 72
8
 73
4
 74
0
 40
0
 40
0
 40
0
 40
0
 40
1
 40
1
 40
1
 40
1
 10
82.145315
 20
59.158190
 30
0.0
 10
81.226623
 20
59.158190
 30
0.0
 10
80.523824
 20
58.848131
 30
0.0
 10
80.036917
 20
58.228014
 30
0.0
  0
SPLINE
  5
1b8
100
AcDbEntity
  8
Calque_1
 62
7
100
AcDbSpline
 70
8
 71
3
 72
8
 73
4
 74
0
 40
0
 40
0
 40
0
 40
0
 40
1
 40
1
 40
1
 40
1
 10
80.036917
 20
58.228014
 30
0.0
 10
79.554603
 20
57.607896
 30
0.0
 10
79.278995
 20
56.670831
 30
0.0
 10
79.210093
 20
55.416818
 30
0.0
  0
SPLINE
  5
1b9
100
AcDbEntity
  8
Calque_1
 62
7
100
AcDbSpline
 70
8
 71
3
 72
8
 73
4
 74
0
 40
0
 40
0
 40
0
 40
0
 40
1
 40
1
 40
1
 40
1
 10
79.210093
 20
55.416818
 30
0.0
 10
79.481108
 20
55.816448
 30
0.0
 10
79.821024
 20
56.121913
 30
0.0
 10
80.229841
 20
56.333213
 30
0.0
  0
SPLINE
  5
1ba
100
AcDbEntity
  8
Calque_1
 62
7
100
AcDbSpline
 70
8
 71
3
 72
8
 73
4
 74
0
 40
0
 40
0
 40
0
 40
0
 40
1
 40
1
 40
1
 40
1
 10
80.229841
 20
56.333213
 30
0.0
 10
80.638661
 20
56.549106
 30
0.0
 10
81.088820
 20
56.657052
 30
0.0
 10
81.580320
 20
56.657052
 30
0.0
  0
SPLINE
  5
1bb
100
AcDbEntity
  8
Calque_1
 62
7
100
AcDbSpline
 70
8
 71
3
 72
8
 73
4
 74
0
 40
0
 40
0
 40
0
 40
0
 40
1
 40
1
 40
1
 40
1
 10
81.580320
 20
56.657052
 30
0.0
 10
82.613848
 20
56.657052
 30
0.0
 10
83.429187
 20
56.342399
 30
0.0
 10
84.026337
 20
55.713095
 30
0.0
  0
SPLINE
  5
1bc
100
AcDbEntity
  8
Calque_1
 62
7
100
AcDbSpline
 70
8
 71
3
 72
8
 73
4
 74
0
 40
0
 40
0
 40
0
 40
0
 40
1
 40
1
 40
1
 40
1
 10
84.026337
 20
55.713095
 30
0.0
 10
84.628080
 20
55.088384
 30
0.0
 10
84.928951
 20
54.236297
 30
0.0
 10
84.928951
 20
53.156833
 30
0.0
  0
SPLINE
  5
1bd
100
AcDbEntity
  8
Calque_1
 62
7
100
AcDbSpline
 70
8
 71
3
 72
8
 73
4
 74
0
 40
0
 40
0
 40
0
 40
0
 40
1
 40
1
 40
1
 40
1
 10
84.928951
 20
53.156833
 30
0.0
 10
84.928951
 20
52.100338
 30
0.0
 10
84.616596
 20
51.252845
 30
0.0
 10
83.991886
 20
50.614355
 30
0.0
  0
SPLINE
  5
1be
100
AcDbEntity
  8
Calque_1
 62
7
100
AcDbSpline
 70
8
 71
3
 72
8
 73
4
 74
0
 40
0
 40
0
 40
0
 40
0
 40
1
 40
1
 40
1
 40
1
 10
83.991886
 20
50.614355
 30
0.0
 10
83.367176
 20
49.975863
 30
0.0
 10
82.535760
 20
49.656617
 30
0.0
 10
81.497637
 20
49.656617
 30
0.0
  0
SPLINE
  5
1bf
100
AcDbEntity
  8
Calque_1
 62
7
100
AcDbSpline
 70
8
 71
3
 72
8
 73
4
 74
0
 40
0
 40
0
 40
0
 40
0
 40
1
 40
1
 40
1
 40
1
 10
81.497637
 20
49.656617
 30
0.0
 10
80.307931
 20
49.656617
 30
0.0
 10
79.398426
 20
50.111370
 30
0.0
 10
78.769121
 20
51.020876
 30
0.0
  0
SPLINE
  5
1c0
100
AcDbEntity
  8
Calque_1
 62
7
100
AcDbSpline
 70
8
 71
3
 72
8
 73
4
 74
0
 40
0
 40
0
 40
0
 40
0
 40
1
 40
1
 40
1
 40
1
 10
78.769121
 20
51.020876
 30
0.0
 10
78.139818
 20
51.934974
 30
0.0
 10
77.825167
 20
53.257889
 30
0.0
 10
77.825167
 20
54.989624
 30
0.0
  0
SPLINE
  5
1c1
100
AcDbEntity
  8
Calque_1
 62
7
100
AcDbSpline
 70
8
 71
3
 72
8
 73
4
 74
0
 40
0
 40
0
 40
0
 40
0
 40
1
 40
1
 40
1
 40
1
 10
77.825167
 20
54.989624
 30
0.0
 10
77.825167
 20
56.615709
 30
0.0
 10
78.211017
 20
57.911065
 30
0.0
 10
78.982718
 20
58.875691
 30
0.0
  0
SPLINE
  5
1c2
100
AcDbEntity
  8
Calque_1
 62
7
100
AcDbSpline
 70
8
 71
3
 72
8
 73
4
 74
0
 40
0
 40
0
 40
0
 40
0
 40
1
 40
1
 40
1
 40
1
 10
78.982718
 20
58.875691
 30
0.0
 10
79.754419
 20
59.844912
 30
0.0
 10
80.790244
 20
60.329522
 30
0.0
 10
82.090194
 20
60.329522
 30
0.0
  0
SPLINE
  5
1c3
100
AcDbEntity
  8
Calque_1
 62
7
100
AcDbSpline
 70
8
 71
3
 72
8
 73
4
 74
0
 40
0
 40
0
 40
0
 40
0
 40
1
 40
1
 40
1
 40
1
 10
82.090194
 20
60.329522
 30
0.0
 10
82.439297
 20
60.329522
 30
0.0
 10
82.790697
 20
60.295071
 30
0.0
 10
83.144393
 20
60.226169
 30
0.0
  0
SPLINE
  5
1c4
100
AcDbEntity
  8
Calque_1
 62
7
100
AcDbSpline
 70
8
 71
3
 72
8
 73
4
 74
0
 40
0
 40
0
 40
0
 40
0
 40
1
 40
1
 40
1
 40
1
 10
83.144393
 20
60.226169
 30
0.0
 10
83.502683
 20
60.157268
 30
0.0
 10
83.874754
 20
60.053915
 30
0.0
 10
84.260604
 20
59.916112
 30
0.0
  0
LINE
  5
1c5
100
AcDbEntity
  8
Calque_1
 62
7
100
AcDbLine
 10
84.260604
 20
59.916112
 30
0.0
 11
84.260604
 21
59.916112
 31
0.0
  0
LINE
  5
1c6
100
AcDbEntity
  8
Calque_1
 62
7
100
AcDbLine
 10
159.930757
 20
250.143457
 30
0.0
 11
166.545340
 21
250.143457
 31
0.0
  0
LINE
  5
1c7
100
AcDbEntity
  8
Calque_1
 62
7
100
AcDbLine
 10
166.545340
 20
250.143457
 30
0.0
 11
166.545340
 21
249.550900
 31
0.0
  0
LINE
  5
1c8
100
AcDbEntity
  8
Calque_1
 62
7
100
AcDbLine
 10
166.545340
 20
249.550900
 30
0.0
 11
162.810857
 21
239.856403
 31
0.0
  0
LINE
  5
1c9
100
AcDbEntity
  8
Calque_1
 62
7
100
AcDbLine
 10
162.810857
 20
239.856403
 30
0.0
 11
161.357026
 21
239.856403
 31
0.0
  0
LINE
  5
1ca
100
AcDbEntity
  8
Calque_1
 62
7
100
AcDbLine
 10
161.357026
 20
239.856403
 30
0.0
 11
164.871023
 21
248.972125
 31
0.0
  0
LINE
  5
1cb
100
AcDbEntity
  8
Calque_1
 62
7
100
AcDbLine
 10
164.871023
 20
248.972125
 30
0.0
 11
159.930757
 21
248.972125
 31
0.0
  0
LINE
  5
1cc
100
AcDbEntity
  8
Calque_1
 62
7
100
AcDbLine
 10
159.930757
 20
248.972125
 30
0.0
 11
159.930757
 21
250.143457
 31
0.0
  0
LINE
  5
1cd
100
AcDbEntity
  8
Calque_1
 62
7
100
AcDbLine
 10
159.930757
 20
250.143457
 30
0.0
 11
159.930757
 21
250.143457
 31
0.0
  0
LINE
  5
1ce
100
AcDbEntity
  8
Calque_1
 62
7
100
AcDbLine
 10
160.323497
 20
145.070018
 30
0.0
 11
160.323497
 21
146.337814
 31
0.0
  0
SPLINE
  5
1cf
100
AcDbEntity
  8
Calque_1
 62
7
100
AcDbSpline
 70
8
 71
3
 72
8
 73
4
 74
0
 40
0
 40
0
 40
0
 40
0
 40
1
 40
1
 40
1
 40
1
 10
160.323497
 20
146.337814
 30
0.0
 10
160.672601
 20
146.172449
 30
0.0
 10
161.026298
 20
146.046129
 30
0.0
 10
161.384588
 20
145.958854
 30
0.0
  0
SPLINE
  5
1d0
100
AcDbEntity
  8
Calque_1
 62
7
100
AcDbSpline
 70
8
 71
3
 72
8
 73
4
 74
0
 40
0
 40
0
 40
0
 40
0
 40
1
 40
1
 40
1
 40
1
 10
161.384588
 20
145.958854
 30
0.0
 10
161.742877
 20
145.871578
 30
0.0
 10
162.094276
 20
145.827940
 30
0.0
 10
162.438787
 20
145.827940
 30
0.0
  0
SPLINE
  5
1d1
100
AcDbEntity
  8
Calque_1
 62
7
100
AcDbSpline
 70
8
 71
3
 72
8
 73
4
 74
0
 40
0
 40
0
 40
0
 40
0
 40
1
 40
1
 40
1
 40
1
 10
162.438787
 20
145.827940
 30
0.0
 10
163.357479
 20
145.827940
 30
0.0
 10
164.057981
 20
146.135701
 30
0.0
 10
164.540295
 20
146.751224
 30
0.0
  0
SPLINE
  5
1d2
100
AcDbEntity
  8
Calque_1
 62
7
100
AcDbSpline
 70
8
 71
3
 72
8
 73
4
 74
0
 40
0
 40
0
 40
0
 40
0
 40
1
 40
1
 40
1
 40
1
 10
164.540295
 20
146.751224
 30
0.0
 10
165.027202
 20
147.371342
 30
0.0
 10
165.305106
 20
148.310704
 30
0.0
 10
165.374008
 20
149.569312
 30
0.0
  0
SPLINE
  5
1d3
100
AcDbEntity
  8
Calque_1
 62
7
100
AcDbSpline
 70
8
 71
3
 72
8
 73
4
 74
0
 40
0
 40
0
 40
0
 40
0
 40
1
 40
1
 40
1
 40
1
 10
165.374008
 20
149.569312
 30
0.0
 10
165.107586
 20
149.174274
 30
0.0
 10
164.769967
 20
148.871106
 30
0.0
 10
164.361149
 20
148.659809
 30
0.0
  0
SPLINE
  5
1d4
100
AcDbEntity
  8
Calque_1
 62
7
100
AcDbSpline
 70
8
 71
3
 72
8
 73
4
 74
0
 40
0
 40
0
 40
0
 40
0
 40
1
 40
1
 40
1
 40
1
 10
164.361149
 20
148.659809
 30
0.0
 10
163.952331
 20
148.448509
 30
0.0
 10
163.499876
 20
148.342859
 30
0.0
 10
163.003782
 20
148.342859
 30
0.0
  0
SPLINE
  5
1d5
100
AcDbEntity
  8
Calque_1
 62
7
100
AcDbSpline
 70
8
 71
3
 72
8
 73
4
 74
0
 40
0
 40
0
 40
0
 40
0
 40
1
 40
1
 40
1
 40
1
 10
163.003782
 20
148.342859
 30
0.0
 10
161.974846
 20
148.342859
 30
0.0
 10
161.159507
 20
148.652918
 30
0.0
 10
160.557764
 20
149.273035
 30
0.0
  0
SPLINE
  5
1d6
100
AcDbEntity
  8
Calque_1
 62
7
100
AcDbSpline
 70
8
 71
3
 72
8
 73
4
 74
0
 40
0
 40
0
 40
0
 40
0
 40
1
 40
1
 40
1
 40
1
 10
160.557764
 20
149.273035
 30
0.0
 10
159.960614
 20
149.897745
 30
0.0
 10
159.662039
 20
150.749832
 30
0.0
 10
159.662039
 20
151.829294
 30
0.0
  0
SPLINE
  5
1d7
100
AcDbEntity
  8
Calque_1
 62
7
100
AcDbSpline
 70
8
 71
3
 72
8
 73
4
 74
0
 40
0
 40
0
 40
0
 40
0
 40
1
 40
1
 40
1
 40
1
 10
159.662039
 20
151.829294
 30
0.0
 10
159.662039
 20
152.885791
 30
0.0
 10
159.974394
 20
153.733285
 30
0.0
 10
160.599104
 20
154.371775
 30
0.0
  0
SPLINE
  5
1d8
100
AcDbEntity
  8
Calque_1
 62
7
100
AcDbSpline
 70
8
 71
3
 72
8
 73
4
 74
0
 40
0
 40
0
 40
0
 40
0
 40
1
 40
1
 40
1
 40
1
 10
160.599104
 20
154.371775
 30
0.0
 10
161.223816
 20
155.010267
 30
0.0
 10
162.055233
 20
155.329513
 30
0.0
 10
163.093353
 20
155.329513
 30
0.0
  0
SPLINE
  5
1d9
100
AcDbEntity
  8
Calque_1
 62
7
100
AcDbSpline
 70
8
 71
3
 72
8
 73
4
 74
0
 40
0
 40
0
 40
0
 40
0
 40
1
 40
1
 40
1
 40
1
 10
163.093353
 20
155.329513
 30
0.0
 10
164.283059
 20
155.329513
 30
0.0
 10
165.190268
 20
154.872463
 30
0.0
 10
165.814980
 20
153.958364
 30
0.0
  0
SPLINE
  5
1da
100
AcDbEntity
  8
Calque_1
 62
7
100
AcDbSpline
 70
8
 71
3
 72
8
 73
4
 74
0
 40
0
 40
0
 40
0
 40
0
 40
1
 40
1
 40
1
 40
1
 10
165.814980
 20
153.958364
 30
0.0
 10
166.444283
 20
153.048858
 30
0.0
 10
166.758935
 20
151.725941
 30
0.0
 10
166.758935
 20
149.989614
 30
0.0
  0
SPLINE
  5
1db
100
AcDbEntity
  8
Calque_1
 62
7
100
AcDbSpline
 70
8
 71
3
 72
8
 73
4
 74
0
 40
0
 40
0
 40
0
 40
0
 40
1
 40
1
 40
1
 40
1
 10
166.758935
 20
149.989614
 30
0.0
 10
166.758935
 20
148.368123
 30
0.0
 10
166.373084
 20
147.072768
 30
0.0
 10
165.601383
 20
146.103547
 30
0.0
  0
SPLINE
  5
1dc
100
AcDbEntity
  8
Calque_1
 62
7
100
AcDbSpline
 70
8
 71
3
 72
8
 73
4
 74
0
 40
0
 40
0
 40
0
 40
0
 40
1
 40
1
 40
1
 40
1
 10
165.601383
 20
146.103547
 30
0.0
 10
164.834275
 20
145.138921
 30
0.0
 10
163.800746
 20
144.656608
 30
0.0
 10
162.500797
 20
144.656608
 30
0.0
  0
SPLINE
  5
1dd
100
AcDbEntity
  8
Calque_1
 62
7
100
AcDbSpline
 70
8
 71
3
 72
8
 73
4
 74
0
 40
0
 40
0
 40
0
 40
0
 40
1
 40
1
 40
1
 40
1
 10
162.500797
 20
144.656608
 30
0.0
 10
162.151695
 20
144.656608
 30
0.0
 10
161.797999
 20
144.691059
 30
0.0
 10
161.439709
 20
144.759960
 30
0.0
  0
SPLINE
  5
1de
100
AcDbEntity
  8
Calque_1
 62
7
100
AcDbSpline
 70
8
 71
3
 72
8
 73
4
 74
0
 40
0
 40
0
 40
0
 40
0
 40
1
 40
1
 40
1
 40
1
 10
161.439709
 20
144.759960
 30
0.0
 10
161.081418
 20
144.828862
 30
0.0
 10
160.709348
 20
144.932215
 30
0.0
 10
160.323497
 20
145.070018
 30
0.0
  0
LINE
  5
1df
100
AcDbEntity
  8
Calque_1
 62
7
100
AcDbLine
 10
160.323497
 20
145.070018
 30
0.0
 11
160.323497
 21
145.070018
 31
0.0
  0
SPLINE
  5
1e0
100
AcDbEntity
  8
Calque_1
 62
7
100
AcDbSpline
 70
8
 71
3
 72
8
 73
4
 74
0
 40
0
 40
0
 40
0
 40
0
 40
1
 40
1
 40
1
 40
1
 10
163.093353
 20
149.431509
 30
0.0
 10
163.718065
 20
149.431509
 30
0.0
 10
164.211863
 20
149.645105
 30
0.0
 10
164.574746
 20
150.072297
 30
0.0
  0
SPLINE
  5
1e1
100
AcDbEntity
  8
Calque_1
 62
7
100
AcDbSpline
 70
8
 71
3
 72
8
 73
4
 74
0
 40
0
 40
0
 40
0
 40
0
 40
1
 40
1
 40
1
 40
1
 10
164.574746
 20
150.072297
 30
0.0
 10
164.942222
 20
150.499489
 30
0.0
 10
165.125960
 20
151.085155
 30
0.0
 10
165.125960
 20
151.829294
 30
0.0
  0
SPLINE
  5
1e2
100
AcDbEntity
  8
Calque_1
 62
7
100
AcDbSpline
 70
8
 71
3
 72
8
 73
4
 74
0
 40
0
 40
0
 40
0
 40
0
 40
1
 40
1
 40
1
 40
1
 10
165.125960
 20
151.829294
 30
0.0
 10
165.125960
 20
152.568842
 30
0.0
 10
164.942222
 20
153.152212
 30
0.0
 10
164.574746
 20
153.579402
 30
0.0
  0
SPLINE
  5
1e3
100
AcDbEntity
  8
Calque_1
 62
7
100
AcDbSpline
 70
8
 71
3
 72
8
 73
4
 74
0
 40
0
 40
0
 40
0
 40
0
 40
1
 40
1
 40
1
 40
1
 10
164.574746
 20
153.579402
 30
0.0
 10
164.211863
 20
154.011189
 30
0.0
 10
163.718065
 20
154.227082
 30
0.0
 10
163.093353
 20
154.227082
 30
0.0
  0
SPLINE
  5
1e4
100
AcDbEntity
  8
Calque_1
 62
7
100
AcDbSpline
 70
8
 71
3
 72
8
 73
4
 74
0
 40
0
 40
0
 40
0
 40
0
 40
1
 40
1
 40
1
 40
1
 10
163.093353
 20
154.227082
 30
0.0
 10
162.468643
 20
154.227082
 30
0.0
 10
161.972550
 20
154.011189
 30
0.0
 10
161.605074
 20
153.579402
 30
0.0
  0
SPLINE
  5
1e5
100
AcDbEntity
  8
Calque_1
 62
7
100
AcDbSpline
 70
8
 71
3
 72
8
 73
4
 74
0
 40
0
 40
0
 40
0
 40
0
 40
1
 40
1
 40
1
 40
1
 10
161.605074
 20
153.579402
 30
0.0
 10
161.242191
 20
153.152212
 30
0.0
 10
161.060749
 20
152.568842
 30
0.0
 10
161.060749
 20
151.829294
 30
0.0
  0
SPLINE
  5
1e6
100
AcDbEntity
  8
Calque_1
 62
7
100
AcDbSpline
 70
8
 71
3
 72
8
 73
4
 74
0
 40
0
 40
0
 40
0
 40
0
 40
1
 40
1
 40
1
 40
1
 10
161.060749
 20
151.829294
 30
0.0
 10
161.060749
 20
151.085155
 30
0.0
 10
161.242191
 20
150.499489
 30
0.0
 10
161.605074
 20
150.072297
 30
0.0
  0
SPLINE
  5
1e7
100
AcDbEntity
  8
Calque_1
 62
7
100
AcDbSpline
 70
8
 71
3
 72
8
 73
4
 74
0
 40
0
 40
0
 40
0
 40
0
 40
1
 40
1
 40
1
 40
1
 10
161.605074
 20
150.072297
 30
0.0
 10
161.972550
 20
149.645105
 30
0.0
 10
162.468643
 20
149.431509
 30
0.0
 10
163.093353
 20
149.431509
 30
0.0
  0
LINE
  5
1e8
100
AcDbEntity
  8
Calque_1
 62
7
100
AcDbLine
 10
163.093353
 20
149.431509
 30
0.0
 11
163.093353
 21
149.431509
 31
0.0
  0
LINE
  5
1e9
100
AcDbEntity
  8
Calque_1
 62
7
100
AcDbLine
 10
154.660105
 20
50.881349
 30
0.0
 11
156.649647
 21
50.881349
 31
0.0
  0
LINE
  5
1ea
100
AcDbEntity
  8
Calque_1
 62
7
100
AcDbLine
 10
156.649647
 20
50.881349
 30
0.0
 11
156.649647
 21
57.748284
 31
0.0
  0
LINE
  5
1eb
100
AcDbEntity
  8
Calque_1
 62
7
100
AcDbLine
 10
156.649647
 20
57.748284
 30
0.0
 11
154.485268
 21
57.314203
 31
0.0
  0
LINE
  5
1ec
100
AcDbEntity
  8
Calque_1
 62
7
100
AcDbLine
 10
154.485268
 20
57.314203
 30
0.0
 11
154.485268
 21
58.423523
 31
0.0
  0
LINE
  5
1ed
100
AcDbEntity
  8
Calque_1
 62
7
100
AcDbLine
 10
154.485268
 20
58.423523
 30
0.0
 11
156.637591
 21
58.857606
 31
0.0
  0
LINE
  5
1ee
100
AcDbEntity
  8
Calque_1
 62
7
100
AcDbLine
 10
156.637591
 20
58.857606
 30
0.0
 11
157.855430
 21
58.857606
 31
0.0
  0
LINE
  5
1ef
100
AcDbEntity
  8
Calque_1
 62
7
100
AcDbLine
 10
157.855430
 20
58.857606
 30
0.0
 11
157.855430
 21
50.881349
 31
0.0
  0
LINE
  5
1f0
100
AcDbEntity
  8
Calque_1
 62
7
100
AcDbLine
 10
157.855430
 20
50.881349
 30
0.0
 11
159.844973
 21
50.881349
 31
0.0
  0
LINE
  5
1f1
100
AcDbEntity
  8
Calque_1
 62
7
100
AcDbLine
 10
159.844973
 20
50.881349
 30
0.0
 11
159.844973
 21
49.856433
 31
0.0
  0
LINE
  5
1f2
100
AcDbEntity
  8
Calque_1
 62
7
100
AcDbLine
 10
159.844973
 20
49.856433
 30
0.0
 11
154.660105
 21
49.856433
 31
0.0
  0
LINE
  5
1f3
100
AcDbEntity
  8
Calque_1
 62
7
100
AcDbLine
 10
154.660105
 20
49.856433
 30
0.0
 11
154.660105
 21
50.881349
 31
0.0
  0
LINE
  5
1f4
100
AcDbEntity
  8
Calque_1
 62
7
100
AcDbLine
 10
154.660105
 20
50.881349
 30
0.0
 11
154.660105
 21
50.881349
 31
0.0
  0
LINE
  5
1f5
100
AcDbEntity
  8
Calque_1
 62
7
100
AcDbLine
 10
162.521814
 20
50.881349
 30
0.0
 11
164.511356
 21
50.881349
 31
0.0
  0
LINE
  5
1f6
100
AcDbEntity
  8
Calque_1
 62
7
100
AcDbLine
 10
164.511356
 20
50.881349
 30
0.0
 11
164.511356
 21
57.748284
 31
0.0
  0
LINE
  5
1f7
100
AcDbEntity
  8
Calque_1
 62
7
100
AcDbLine
 10
164.511356
 20
57.748284
 30
0.0
 11
162.346974
 21
57.314203
 31
0.0
  0
LINE
  5
1f8
100
AcDbEntity
  8
Calque_1
 62
7
100
AcDbLine
 10
162.346974
 20
57.314203
 30
0.0
 11
162.346974
 21
58.423523
 31
0.0
  0
LINE
  5
1f9
100
AcDbEntity
  8
Calque_1
 62
7
100
AcDbLine
 10
162.346974
 20
58.423523
 30
0.0
 11
164.499297
 21
58.857606
 31
0.0
  0
LINE
  5
1fa
100
AcDbEntity
  8
Calque_1
 62
7
100
AcDbLine
 10
164.499297
 20
58.857606
 30
0.0
 11
165.717139
 21
58.857606
 31
0.0
  0
LINE
  5
1fb
100
AcDbEntity
  8
Calque_1
 62
7
100
AcDbLine
 10
165.717139
 20
58.857606
 30
0.0
 11
165.717139
 21
50.881349
 31
0.0
  0
LINE
  5
1fc
100
AcDbEntity
  8
Calque_1
 62
7
100
AcDbLine
 10
165.717139
 20
50.881349
 30
0.0
 11
167.706682
 21
50.881349
 31
0.0
  0
LINE
  5
1fd
100
AcDbEntity
  8
Calque_1
 62
7
100
AcDbLine
 10
167.706682
 20
50.881349
 30
0.0
 11
167.706682
 21
49.856433
 31
0.0
  0
LINE
  5
1fe
100
AcDbEntity
  8
Calque_1
 62
7
100
AcDbLine
 10
167.706682
 20
49.856433
 30
0.0
 11
162.521814
 21
49.856433
 31
0.0
  0
LINE
  5
1ff
100
AcDbEntity
  8
Calque_1
 62
7
100
AcDbLine
 10
162.521814
 20
49.856433
 30
0.0
 11
162.521814
 21
50.881349
 31
0.0
  0
LINE
  5
200
100
AcDbEntity
  8
Calque_1
 62
7
100
AcDbLine
 10
162.521814
 20
50.881349
 30
0.0
 11
162.521814
 21
50.881349
 31
0.0
  0
SPLINE
  5
201
100
AcDbEntity
  8
Calque_1
 62
7
100
AcDbSpline
 70
8
 71
3
 72
8
 73
4
 74
0
 40
0
 40
0
 40
0
 40
0
 40
1
 40
1
 40
1
 40
1
 10
231.080935
 20
244.741548
 30
0.0
 10
230.419478
 20
244.741548
 30
0.0
 10
229.898120
 20
244.564701
 30
0.0
 10
229.516862
 20
244.211005
 30
0.0
  0
SPLINE
  5
202
100
AcDbEntity
  8
Calque_1
 62
7
100
AcDbSpline
 70
8
 71
3
 72
8
 73
4
 74
0
 40
0
 40
0
 40
0
 40
0
 40
1
 40
1
 40
1
 40
1
 10
229.516862
 20
244.211005
 30
0.0
 10
229.140199
 20
243.857307
 30
0.0
 10
228.951867
 20
243.370400
 30
0.0
 10
228.951867
 20
242.750284
 30
0.0
  0
SPLINE
  5
203
100
AcDbEntity
  8
Calque_1
 62
7
100
AcDbSpline
 70
8
 71
3
 72
8
 73
4
 74
0
 40
0
 40
0
 40
0
 40
0
 40
1
 40
1
 40
1
 40
1
 10
228.951867
 20
242.750284
 30
0.0
 10
228.951867
 20
242.130167
 30
0.0
 10
229.140199
 20
241.643260
 30
0.0
 10
229.516862
 20
241.289564
 30
0.0
  0
SPLINE
  5
204
100
AcDbEntity
  8
Calque_1
 62
7
100
AcDbSpline
 70
8
 71
3
 72
8
 73
4
 74
0
 40
0
 40
0
 40
0
 40
0
 40
1
 40
1
 40
1
 40
1
 10
229.516862
 20
241.289564
 30
0.0
 10
229.898120
 20
240.935866
 30
0.0
 10
230.419478
 20
240.759018
 30
0.0
 10
231.080935
 20
240.759018
 30
0.0
  0
SPLINE
  5
205
100
AcDbEntity
  8
Calque_1
 62
7
100
AcDbSpline
 70
8
 71
3
 72
8
 73
4
 74
0
 40
0
 40
0
 40
0
 40
0
 40
1
 40
1
 40
1
 40
1
 10
231.080935
 20
240.759018
 30
0.0
 10
231.742394
 20
240.759018
 30
0.0
 10
232.263752
 20
240.935866
 30
0.0
 10
232.645008
 20
241.289564
 30
0.0
  0
SPLINE
  5
206
100
AcDbEntity
  8
Calque_1
 62
7
100
AcDbSpline
 70
8
 71
3
 72
8
 73
4
 74
0
 40
0
 40
0
 40
0
 40
0
 40
1
 40
1
 40
1
 40
1
 10
232.645008
 20
241.289564
 30
0.0
 10
233.026266
 20
241.647853
 30
0.0
 10
233.216894
 20
242.134760
 30
0.0
 10
233.216894
 20
242.750284
 30
0.0
  0
SPLINE
  5
207
100
AcDbEntity
  8
Calque_1
 62
7
100
AcDbSpline
 70
8
 71
3
 72
8
 73
4
 74
0
 40
0
 40
0
 40
0
 40
0
 40
1
 40
1
 40
1
 40
1
 10
233.216894
 20
242.750284
 30
0.0
 10
233.216894
 20
243.370400
 30
0.0
 10
233.026266
 20
243.857307
 30
0.0
 10
232.645008
 20
244.211005
 30
0.0
  0
SPLINE
  5
208
100
AcDbEntity
  8
Calque_1
 62
7
100
AcDbSpline
 70
8
 71
3
 72
8
 73
4
 74
0
 40
0
 40
0
 40
0
 40
0
 40
1
 40
1
 40
1
 40
1
 10
232.645008
 20
244.211005
 30
0.0
 10
232.268345
 20
244.564701
 30
0.0
 10
231.746987
 20
244.741548
 30
0.0
 10
231.080935
 20
244.741548
 30
0.0
  0
LINE
  5
209
100
AcDbEntity
  8
Calque_1
 62
7
100
AcDbLine
 10
231.080935
 20
244.741548
 30
0.0
 11
231.080935
 21
244.741548
 31
0.0
  0
SPLINE
  5
20a
100
AcDbEntity
  8
Calque_1
 62
7
100
AcDbSpline
 70
8
 71
3
 72
8
 73
4
 74
0
 40
0
 40
0
 40
0
 40
0
 40
1
 40
1
 40
1
 40
1
 10
229.689117
 20
245.334105
 30
0.0
 10
229.091966
 20
245.481096
 30
0.0
 10
228.625731
 20
245.759000
 30
0.0
 10
228.290409
 20
246.167818
 30
0.0
  0
SPLINE
  5
20b
100
AcDbEntity
  8
Calque_1
 62
7
100
AcDbSpline
 70
8
 71
3
 72
8
 73
4
 74
0
 40
0
 40
0
 40
0
 40
0
 40
1
 40
1
 40
1
 40
1
 10
228.290409
 20
246.167818
 30
0.0
 10
227.959680
 20
246.576635
 30
0.0
 10
227.794316
 20
247.075026
 30
0.0
 10
227.794316
 20
247.662989
 30
0.0
  0
SPLINE
  5
20c
100
AcDbEntity
  8
Calque_1
 62
7
100
AcDbSpline
 70
8
 71
3
 72
8
 73
4
 74
0
 40
0
 40
0
 40
0
 40
0
 40
1
 40
1
 40
1
 40
1
 10
227.794316
 20
247.662989
 30
0.0
 10
227.794316
 20
248.485219
 30
0.0
 10
228.086000
 20
249.135193
 30
0.0
 10
228.669369
 20
249.612913
 30
0.0
  0
SPLINE
  5
20d
100
AcDbEntity
  8
Calque_1
 62
7
100
AcDbSpline
 70
8
 71
3
 72
8
 73
4
 74
0
 40
0
 40
0
 40
0
 40
0
 40
1
 40
1
 40
1
 40
1
 10
228.669369
 20
249.612913
 30
0.0
 10
229.257332
 20
250.090632
 30
0.0
 10
230.061187
 20
250.329492
 30
0.0
 10
231.080935
 20
250.329492
 30
0.0
  0
SPLINE
  5
20e
100
AcDbEntity
  8
Calque_1
 62
7
100
AcDbSpline
 70
8
 71
3
 72
8
 73
4
 74
0
 40
0
 40
0
 40
0
 40
0
 40
1
 40
1
 40
1
 40
1
 10
231.080935
 20
250.329492
 30
0.0
 10
232.105277
 20
250.329492
 30
0.0
 10
232.909133
 20
250.090632
 30
0.0
 10
233.492501
 20
249.612913
 30
0.0
  0
SPLINE
  5
20f
100
AcDbEntity
  8
Calque_1
 62
7
100
AcDbSpline
 70
8
 71
3
 72
8
 73
4
 74
0
 40
0
 40
0
 40
0
 40
0
 40
1
 40
1
 40
1
 40
1
 10
233.492501
 20
249.612913
 30
0.0
 10
234.075872
 20
249.135193
 30
0.0
 10
234.367557
 20
248.485219
 30
0.0
 10
234.367557
 20
247.662989
 30
0.0
  0
SPLINE
  5
210
100
AcDbEntity
  8
Calque_1
 62
7
100
AcDbSpline
 70
8
 71
3
 72
8
 73
4
 74
0
 40
0
 40
0
 40
0
 40
0
 40
1
 40
1
 40
1
 40
1
 10
234.367557
 20
247.662989
 30
0.0
 10
234.367557
 20
247.075026
 30
0.0
 10
234.199895
 20
246.576635
 30
0.0
 10
233.864572
 20
246.167818
 30
0.0
  0
SPLINE
  5
211
100
AcDbEntity
  8
Calque_1
 62
7
100
AcDbSpline
 70
8
 71
3
 72
8
 73
4
 74
0
 40
0
 40
0
 40
0
 40
0
 40
1
 40
1
 40
1
 40
1
 10
233.864572
 20
246.167818
 30
0.0
 10
233.533843
 20
245.759000
 30
0.0
 10
233.072201
 20
245.481096
 30
0.0
 10
232.479645
 20
245.334105
 30
0.0
  0
SPLINE
  5
212
100
AcDbEntity
  8
Calque_1
 62
7
100
AcDbSpline
 70
8
 71
3
 72
8
 73
4
 74
0
 40
0
 40
0
 40
0
 40
0
 40
1
 40
1
 40
1
 40
1
 10
232.479645
 20
245.334105
 30
0.0
 10
233.150290
 20
245.177927
 30
0.0
 10
233.671648
 20
244.872462
 30
0.0
 10
234.043718
 20
244.417710
 30
0.0
  0
SPLINE
  5
213
100
AcDbEntity
  8
Calque_1
 62
7
100
AcDbSpline
 70
8
 71
3
 72
8
 73
4
 74
0
 40
0
 40
0
 40
0
 40
0
 40
1
 40
1
 40
1
 40
1
 10
234.043718
 20
244.417710
 30
0.0
 10
234.420381
 20
243.962958
 30
0.0
 10
234.608713
 20
243.407149
 30
0.0
 10
234.608713
 20
242.750284
 30
0.0
  0
SPLINE
  5
214
100
AcDbEntity
  8
Calque_1
 62
7
100
AcDbSpline
 70
8
 71
3
 72
8
 73
4
 74
0
 40
0
 40
0
 40
0
 40
0
 40
1
 40
1
 40
1
 40
1
 10
234.608713
 20
242.750284
 30
0.0
 10
234.608713
 20
241.753504
 30
0.0
 10
234.303248
 20
240.988692
 30
0.0
 10
233.692317
 20
240.455849
 30
0.0
  0
SPLINE
  5
215
100
AcDbEntity
  8
Calque_1
 62
7
100
AcDbSpline
 70
8
 71
3
 72
8
 73
4
 74
0
 40
0
 40
0
 40
0
 40
0
 40
1
 40
1
 40
1
 40
1
 10
233.692317
 20
240.455849
 30
0.0
 10
233.085980
 20
239.923008
 30
0.0
 10
232.215519
 20
239.656587
 30
0.0
 10
231.080935
 20
239.656587
 30
0.0
  0
SPLINE
  5
216
100
AcDbEntity
  8
Calque_1
 62
7
100
AcDbSpline
 70
8
 71
3
 72
8
 73
4
 74
0
 40
0
 40
0
 40
0
 40
0
 40
1
 40
1
 40
1
 40
1
 10
231.080935
 20
239.656587
 30
0.0
 10
229.946351
 20
239.656587
 30
0.0
 10
229.073594
 20
239.923008
 30
0.0
 10
228.462663
 20
240.455849
 30
0.0
  0
SPLINE
  5
217
100
AcDbEntity
  8
Calque_1
 62
7
100
AcDbSpline
 70
8
 71
3
 72
8
 73
4
 74
0
 40
0
 40
0
 40
0
 40
0
 40
1
 40
1
 40
1
 40
1
 10
228.462663
 20
240.455849
 30
0.0
 10
227.856326
 20
240.988692
 30
0.0
 10
227.553157
 20
241.753504
 30
0.0
 10
227.553157
 20
242.750284
 30
0.0
  0
SPLINE
  5
218
100
AcDbEntity
  8
Calque_1
 62
7
100
AcDbSpline
 70
8
 71
3
 72
8
 73
4
 74
0
 40
0
 40
0
 40
0
 40
0
 40
1
 40
1
 40
1
 40
1
 10
227.553157
 20
242.750284
 30
0.0
 10
227.553157
 20
243.407149
 30
0.0
 10
227.741490
 20
243.962958
 30
0.0
 10
228.118155
 20
244.417710
 30
0.0
  0
SPLINE
  5
219
100
AcDbEntity
  8
Calque_1
 62
7
100
AcDbSpline
 70
8
 71
3
 72
8
 73
4
 74
0
 40
0
 40
0
 40
0
 40
0
 40
1
 40
1
 40
1
 40
1
 10
228.118155
 20
244.417710
 30
0.0
 10
228.494818
 20
244.872462
 30
0.0
 10
229.018472
 20
245.177927
 30
0.0
 10
229.689117
 20
245.334105
 30
0.0
  0
LINE
  5
21a
100
AcDbEntity
  8
Calque_1
 62
7
100
AcDbLine
 10
229.689117
 20
245.334105
 30
0.0
 11
229.689117
 21
245.334105
 31
0.0
  0
SPLINE
  5
21b
100
AcDbEntity
  8
Calque_1
 62
7
100
AcDbSpline
 70
8
 71
3
 72
8
 73
4
 74
0
 40
0
 40
0
 40
0
 40
0
 40
1
 40
1
 40
1
 40
1
 10
229.179243
 20
247.532074
 30
0.0
 10
229.179243
 20
246.999233
 30
0.0
 10
229.344607
 20
246.583525
 30
0.0
 10
229.675336
 20
246.284951
 30
0.0
  0
SPLINE
  5
21c
100
AcDbEntity
  8
Calque_1
 62
7
100
AcDbSpline
 70
8
 71
3
 72
8
 73
4
 74
0
 40
0
 40
0
 40
0
 40
0
 40
1
 40
1
 40
1
 40
1
 10
229.675336
 20
246.284951
 30
0.0
 10
230.010659
 20
245.986375
 30
0.0
 10
230.479192
 20
245.837087
 30
0.0
 10
231.080935
 20
245.837087
 30
0.0
  0
SPLINE
  5
21d
100
AcDbEntity
  8
Calque_1
 62
7
100
AcDbSpline
 70
8
 71
3
 72
8
 73
4
 74
0
 40
0
 40
0
 40
0
 40
0
 40
1
 40
1
 40
1
 40
1
 10
231.080935
 20
245.837087
 30
0.0
 10
231.678085
 20
245.837087
 30
0.0
 10
232.144322
 20
245.986375
 30
0.0
 10
232.479645
 20
246.284951
 30
0.0
  0
SPLINE
  5
21e
100
AcDbEntity
  8
Calque_1
 62
7
100
AcDbSpline
 70
8
 71
3
 72
8
 73
4
 74
0
 40
0
 40
0
 40
0
 40
0
 40
1
 40
1
 40
1
 40
1
 10
232.479645
 20
246.284951
 30
0.0
 10
232.819561
 20
246.583525
 30
0.0
 10
232.989519
 20
246.999233
 30
0.0
 10
232.989519
 20
247.532074
 30
0.0
  0
SPLINE
  5
21f
100
AcDbEntity
  8
Calque_1
 62
7
100
AcDbSpline
 70
8
 71
3
 72
8
 73
4
 74
0
 40
0
 40
0
 40
0
 40
0
 40
1
 40
1
 40
1
 40
1
 10
232.989519
 20
247.532074
 30
0.0
 10
232.989519
 20
248.064916
 30
0.0
 10
232.819561
 20
248.480624
 30
0.0
 10
232.479645
 20
248.779200
 30
0.0
  0
SPLINE
  5
220
100
AcDbEntity
  8
Calque_1
 62
7
100
AcDbSpline
 70
8
 71
3
 72
8
 73
4
 74
0
 40
0
 40
0
 40
0
 40
0
 40
1
 40
1
 40
1
 40
1
 10
232.479645
 20
248.779200
 30
0.0
 10
232.144322
 20
249.077774
 30
0.0
 10
231.678085
 20
249.227061
 30
0.0
 10
231.080935
 20
249.227061
 30
0.0
  0
SPLINE
  5
221
100
AcDbEntity
  8
Calque_1
 62
7
100
AcDbSpline
 70
8
 71
3
 72
8
 73
4
 74
0
 40
0
 40
0
 40
0
 40
0
 40
1
 40
1
 40
1
 40
1
 10
231.080935
 20
249.227061
 30
0.0
 10
230.479192
 20
249.227061
 30
0.0
 10
230.010659
 20
249.077774
 30
0.0
 10
229.675336
 20
248.779200
 30
0.0
  0
SPLINE
  5
222
100
AcDbEntity
  8
Calque_1
 62
7
100
AcDbSpline
 70
8
 71
3
 72
8
 73
4
 74
0
 40
0
 40
0
 40
0
 40
0
 40
1
 40
1
 40
1
 40
1
 10
229.675336
 20
248.779200
 30
0.0
 10
229.344607
 20
248.480624
 30
0.0
 10
229.179243
 20
248.064916
 30
0.0
 10
229.179243
 20
247.532074
 30
0.0
  0
LINE
  5
223
100
AcDbEntity
  8
Calque_1
 62
7
100
AcDbLine
 10
229.179243
 20
247.532074
 30
0.0
 11
229.179243
 21
247.532074
 31
0.0
  0
LINE
  5
224
100
AcDbEntity
  8
Calque_1
 62
7
100
AcDbLine
 10
223.611213
 20
145.881339
 30
0.0
 11
225.600755
 21
145.881339
 31
0.0
  0
LINE
  5
225
100
AcDbEntity
  8
Calque_1
 62
7
100
AcDbLine
 10
225.600755
 20
145.881339
 30
0.0
 11
225.600755
 21
152.748274
 31
0.0
  0
LINE
  5
226
100
AcDbEntity
  8
Calque_1
 62
7
100
AcDbLine
 10
225.600755
 20
152.748274
 30
0.0
 11
223.436373
 21
152.314191
 31
0.0
  0
LINE
  5
227
100
AcDbEntity
  8
Calque_1
 62
7
100
AcDbLine
 10
223.436373
 20
152.314191
 30
0.0
 11
223.436373
 21
153.423514
 31
0.0
  0
LINE
  5
228
100
AcDbEntity
  8
Calque_1
 62
7
100
AcDbLine
 10
223.436373
 20
153.423514
 30
0.0
 11
225.588696
 21
153.857594
 31
0.0
  0
LINE
  5
229
100
AcDbEntity
  8
Calque_1
 62
7
100
AcDbLine
 10
225.588696
 20
153.857594
 30
0.0
 11
226.806538
 21
153.857594
 31
0.0
  0
LINE
  5
22a
100
AcDbEntity
  8
Calque_1
 62
7
100
AcDbLine
 10
226.806538
 20
153.857594
 30
0.0
 11
226.806538
 21
145.881339
 31
0.0
  0
LINE
  5
22b
100
AcDbEntity
  8
Calque_1
 62
7
100
AcDbLine
 10
226.806538
 20
145.881339
 30
0.0
 11
228.796081
 21
145.881339
 31
0.0
  0
LINE
  5
22c
100
AcDbEntity
  8
Calque_1
 62
7
100
AcDbLine
 10
228.796081
 20
145.881339
 30
0.0
 11
228.796081
 21
144.856424
 31
0.0
  0
LINE
  5
22d
100
AcDbEntity
  8
Calque_1
 62
7
100
AcDbLine
 10
228.796081
 20
144.856424
 30
0.0
 11
223.611213
 21
144.856424
 31
0.0
  0
LINE
  5
22e
100
AcDbEntity
  8
Calque_1
 62
7
100
AcDbLine
 10
223.611213
 20
144.856424
 30
0.0
 11
223.611213
 21
145.881339
 31
0.0
  0
LINE
  5
22f
100
AcDbEntity
  8
Calque_1
 62
7
100
AcDbLine
 10
223.611213
 20
145.881339
 30
0.0
 11
223.611213
 21
145.881339
 31
0.0
  0
SPLINE
  5
230
100
AcDbEntity
  8
Calque_1
 62
7
100
AcDbSpline
 70
8
 71
3
 72
8
 73
4
 74
0
 40
0
 40
0
 40
0
 40
0
 40
1
 40
1
 40
1
 40
1
 10
233.866398
 20
153.055750
 30
0.0
 10
233.239390
 20
153.055750
 30
0.0
 10
232.767125
 20
152.746265
 30
0.0
 10
232.449603
 20
152.127295
 30
0.0
  0
SPLINE
  5
231
100
AcDbEntity
  8
Calque_1
 62
7
100
AcDbSpline
 70
8
 71
3
 72
8
 73
4
 74
0
 40
0
 40
0
 40
0
 40
0
 40
1
 40
1
 40
1
 40
1
 10
232.449603
 20
152.127295
 30
0.0
 10
232.136099
 20
151.512346
 30
0.0
 10
231.979347
 20
150.585903
 30
0.0
 10
231.979347
 20
149.347965
 30
0.0
  0
SPLINE
  5
232
100
AcDbEntity
  8
Calque_1
 62
7
100
AcDbSpline
 70
8
 71
3
 72
8
 73
4
 74
0
 40
0
 40
0
 40
0
 40
0
 40
1
 40
1
 40
1
 40
1
 10
231.979347
 20
149.347965
 30
0.0
 10
231.979347
 20
148.114046
 30
0.0
 10
232.136099
 20
147.187603
 30
0.0
 10
232.449603
 20
146.568635
 30
0.0
  0
SPLINE
  5
233
100
AcDbEntity
  8
Calque_1
 62
7
100
AcDbSpline
 70
8
 71
3
 72
8
 73
4
 74
0
 40
0
 40
0
 40
0
 40
0
 40
1
 40
1
 40
1
 40
1
 10
232.449603
 20
146.568635
 30
0.0
 10
232.767125
 20
145.953686
 30
0.0
 10
233.239390
 20
145.646211
 30
0.0
 10
233.866398
 20
145.646211
 30
0.0
  0
SPLINE
  5
234
100
AcDbEntity
  8
Calque_1
 62
7
100
AcDbSpline
 70
8
 71
3
 72
8
 73
4
 74
0
 40
0
 40
0
 40
0
 40
0
 40
1
 40
1
 40
1
 40
1
 10
233.866398
 20
145.646211
 30
0.0
 10
234.497424
 20
145.646211
 30
0.0
 10
234.969689
 20
145.953686
 30
0.0
 10
235.283193
 20
146.568635
 30
0.0
  0
SPLINE
  5
235
100
AcDbEntity
  8
Calque_1
 62
7
100
AcDbSpline
 70
8
 71
3
 72
8
 73
4
 74
0
 40
0
 40
0
 40
0
 40
0
 40
1
 40
1
 40
1
 40
1
 10
235.283193
 20
146.568635
 30
0.0
 10
235.600717
 20
147.187603
 30
0.0
 10
235.759480
 20
148.114046
 30
0.0
 10
235.759480
 20
149.347965
 30
0.0
  0
SPLINE
  5
236
100
AcDbEntity
  8
Calque_1
 62
7
100
AcDbSpline
 70
8
 71
3
 72
8
 73
4
 74
0
 40
0
 40
0
 40
0
 40
0
 40
1
 40
1
 40
1
 40
1
 10
235.759480
 20
149.347965
 30
0.0
 10
235.759480
 20
150.585903
 30
0.0
 10
235.600717
 20
151.512346
 30
0.0
 10
235.283193
 20
152.127295
 30
0.0
  0
SPLINE
  5
237
100
AcDbEntity
  8
Calque_1
 62
7
100
AcDbSpline
 70
8
 71
3
 72
8
 73
4
 74
0
 40
0
 40
0
 40
0
 40
0
 40
1
 40
1
 40
1
 40
1
 10
235.283193
 20
152.127295
 30
0.0
 10
234.969689
 20
152.746265
 30
0.0
 10
234.497424
 20
153.055750
 30
0.0
 10
233.866398
 20
153.055750
 30
0.0
  0
LINE
  5
238
100
AcDbEntity
  8
Calque_1
 62
7
100
AcDbLine
 10
233.866398
 20
153.055750
 30
0.0
 11
233.866398
 21
153.055750
 31
0.0
  0
SPLINE
  5
239
100
AcDbEntity
  8
Calque_1
 62
7
100
AcDbSpline
 70
8
 71
3
 72
8
 73
4
 74
0
 40
0
 40
0
 40
0
 40
0
 40
1
 40
1
 40
1
 40
1
 10
233.866398
 20
154.020377
 30
0.0
 10
234.875237
 20
154.020377
 30
0.0
 10
235.644928
 20
153.620459
 30
0.0
 10
236.175472
 20
152.820622
 30
0.0
  0
SPLINE
  5
23a
100
AcDbEntity
  8
Calque_1
 62
7
100
AcDbSpline
 70
8
 71
3
 72
8
 73
4
 74
0
 40
0
 40
0
 40
0
 40
0
 40
1
 40
1
 40
1
 40
1
 10
236.175472
 20
152.820622
 30
0.0
 10
236.710037
 20
152.024804
 30
0.0
 10
236.977319
 20
150.867252
 30
0.0
 10
236.977319
 20
149.347965
 30
0.0
  0
SPLINE
  5
23b
100
AcDbEntity
  8
Calque_1
 62
7
100
AcDbSpline
 70
8
 71
3
 72
8
 73
4
 74
0
 40
0
 40
0
 40
0
 40
0
 40
1
 40
1
 40
1
 40
1
 10
236.977319
 20
149.347965
 30
0.0
 10
236.977319
 20
147.832697
 30
0.0
 10
236.710037
 20
146.675146
 30
0.0
 10
236.175472
 20
145.875311
 30
0.0
  0
SPLINE
  5
23c
100
AcDbEntity
  8
Calque_1
 62
7
100
AcDbSpline
 70
8
 71
3
 72
8
 73
4
 74
0
 40
0
 40
0
 40
0
 40
0
 40
1
 40
1
 40
1
 40
1
 10
236.175472
 20
145.875311
 30
0.0
 10
235.644928
 20
145.079493
 30
0.0
 10
234.875237
 20
144.681584
 30
0.0
 10
233.866398
 20
144.681584
 30
0.0
  0
SPLINE
  5
23d
100
AcDbEntity
  8
Calque_1
 62
7
100
AcDbSpline
 70
8
 71
3
 72
8
 73
4
 74
0
 40
0
 40
0
 40
0
 40
0
 40
1
 40
1
 40
1
 40
1
 10
233.866398
 20
144.681584
 30
0.0
 10
232.857559
 20
144.681584
 30
0.0
 10
232.085858
 20
145.079493
 30
0.0
 10
231.551295
 20
145.875311
 30
0.0
  0
SPLINE
  5
23e
100
AcDbEntity
  8
Calque_1
 62
7
100
AcDbSpline
 70
8
 71
3
 72
8
 73
4
 74
0
 40
0
 40
0
 40
0
 40
0
 40
1
 40
1
 40
1
 40
1
 10
231.551295
 20
145.875311
 30
0.0
 10
231.020749
 20
146.675146
 30
0.0
 10
230.755476
 20
147.832697
 30
0.0
 10
230.755476
 20
149.347965
 30
0.0
  0
SPLINE
  5
23f
100
AcDbEntity
  8
Calque_1
 62
7
100
AcDbSpline
 70
8
 71
3
 72
8
 73
4
 74
0
 40
0
 40
0
 40
0
 40
0
 40
1
 40
1
 40
1
 40
1
 10
230.755476
 20
149.347965
 30
0.0
 10
230.755476
 20
150.867252
 30
0.0
 10
231.020749
 20
152.024804
 30
0.0
 10
231.551295
 20
152.820622
 30
0.0
  0
SPLINE
  5
240
100
AcDbEntity
  8
Calque_1
 62
7
100
AcDbSpline
 70
8
 71
3
 72
8
 73
4
 74
0
 40
0
 40
0
 40
0
 40
0
 40
1
 40
1
 40
1
 40
1
 10
231.551295
 20
152.820622
 30
0.0
 10
232.085858
 20
153.620459
 30
0.0
 10
232.857559
 20
154.020377
 30
0.0
 10
233.866398
 20
154.020377
 30
0.0
  0
LINE
  5
241
100
AcDbEntity
  8
Calque_1
 62
7
100
AcDbLine
 10
233.866398
 20
154.020377
 30
0.0
 11
233.866398
 21
154.020377
 31
0.0
  0
LINE
  5
242
100
AcDbEntity
  8
Calque_1
 62
7
100
AcDbLine
 10
224.175657
 20
50.881349
 30
0.0
 11
226.165200
 21
50.881349
 31
0.0
  0
LINE
  5
243
100
AcDbEntity
  8
Calque_1
 62
7
100
AcDbLine
 10
226.165200
 20
50.881349
 30
0.0
 11
226.165200
 21
57.748284
 31
0.0
  0
LINE
  5
244
100
AcDbEntity
  8
Calque_1
 62
7
100
AcDbLine
 10
226.165200
 20
57.748284
 30
0.0
 11
224.000818
 21
57.314203
 31
0.0
  0
LINE
  5
245
100
AcDbEntity
  8
Calque_1
 62
7
100
AcDbLine
 10
224.000818
 20
57.314203
 30
0.0
 11
224.000818
 21
58.423523
 31
0.0
  0
LINE
  5
246
100
AcDbEntity
  8
Calque_1
 62
7
100
AcDbLine
 10
224.000818
 20
58.423523
 30
0.0
 11
226.153140
 21
58.857606
 31
0.0
  0
LINE
  5
247
100
AcDbEntity
  8
Calque_1
 62
7
100
AcDbLine
 10
226.153140
 20
58.857606
 30
0.0
 11
227.370983
 21
58.857606
 31
0.0
  0
LINE
  5
248
100
AcDbEntity
  8
Calque_1
 62
7
100
AcDbLine
 10
227.370983
 20
58.857606
 30
0.0
 11
227.370983
 21
50.881349
 31
0.0
  0
LINE
  5
249
100
AcDbEntity
  8
Calque_1
 62
7
100
AcDbLine
 10
227.370983
 20
50.881349
 30
0.0
 11
229.360525
 21
50.881349
 31
0.0
  0
LINE
  5
24a
100
AcDbEntity
  8
Calque_1
 62
7
100
AcDbLine
 10
229.360525
 20
50.881349
 30
0.0
 11
229.360525
 21
49.856433
 31
0.0
  0
LINE
  5
24b
100
AcDbEntity
  8
Calque_1
 62
7
100
AcDbLine
 10
229.360525
 20
49.856433
 30
0.0
 11
224.175657
 21
49.856433
 31
0.0
  0
LINE
  5
24c
100
AcDbEntity
  8
Calque_1
 62
7
100
AcDbLine
 10
224.175657
 20
49.856433
 30
0.0
 11
224.175657
 21
50.881349
 31
0.0
  0
LINE
  5
24d
100
AcDbEntity
  8
Calque_1
 62
7
100
AcDbLine
 10
224.175657
 20
50.881349
 30
0.0
 11
224.175657
 21
50.881349
 31
0.0
  0
LINE
  5
24e
100
AcDbEntity
  8
Calque_1
 62
7
100
AcDbLine
 10
232.875383
 20
50.881349
 30
0.0
 11
237.125768
 21
50.881349
 31
0.0
  0
LINE
  5
24f
100
AcDbEntity
  8
Calque_1
 62
7
100
AcDbLine
 10
237.125768
 20
50.881349
 30
0.0
 11
237.125768
 21
49.856433
 31
0.0
  0
LINE
  5
250
100
AcDbEntity
  8
Calque_1
 62
7
100
AcDbLine
 10
237.125768
 20
49.856433
 30
0.0
 11
231.410356
 21
49.856433
 31
0.0
  0
LINE
  5
251
100
AcDbEntity
  8
Calque_1
 62
7
100
AcDbLine
 10
231.410356
 20
49.856433
 30
0.0
 11
231.410356
 21
50.881349
 31
0.0
  0
SPLINE
  5
252
100
AcDbEntity
  8
Calque_1
 62
7
100
AcDbSpline
 70
8
 71
3
 72
8
 73
4
 74
0
 40
0
 40
0
 40
0
 40
0
 40
1
 40
1
 40
1
 40
1
 10
231.410356
 20
50.881349
 30
0.0
 10
231.872572
 20
51.359644
 30
0.0
 10
232.501589
 20
52.000719
 30
0.0
 10
233.297407
 20
52.804575
 30
0.0
  0
SPLINE
  5
253
100
AcDbEntity
  8
Calque_1
 62
7
100
AcDbSpline
 70
8
 71
3
 72
8
 73
4
 74
0
 40
0
 40
0
 40
0
 40
0
 40
1
 40
1
 40
1
 40
1
 10
233.297407
 20
52.804575
 30
0.0
 10
234.097243
 20
53.612449
 30
0.0
 10
234.599653
 20
54.132945
 30
0.0
 10
234.804637
 20
54.366062
 30
0.0
  0
SPLINE
  5
254
100
AcDbEntity
  8
Calque_1
 62
7
100
AcDbSpline
 70
8
 71
3
 72
8
 73
4
 74
0
 40
0
 40
0
 40
0
 40
0
 40
1
 40
1
 40
1
 40
1
 10
234.804637
 20
54.366062
 30
0.0
 10
235.194506
 20
54.804163
 30
0.0
 10
235.465808
 20
55.173937
 30
0.0
 10
235.618541
 20
55.475385
 30
0.0
  0
SPLINE
  5
255
100
AcDbEntity
  8
Calque_1
 62
7
100
AcDbSpline
 70
8
 71
3
 72
8
 73
4
 74
0
 40
0
 40
0
 40
0
 40
0
 40
1
 40
1
 40
1
 40
1
 10
235.618541
 20
55.475385
 30
0.0
 10
235.775292
 20
55.780849
 30
0.0
 10
235.853668
 20
56.080285
 30
0.0
 10
235.853668
 20
56.373692
 30
0.0
  0
SPLINE
  5
256
100
AcDbEntity
  8
Calque_1
 62
7
100
AcDbSpline
 70
8
 71
3
 72
8
 73
4
 74
0
 40
0
 40
0
 40
0
 40
0
 40
1
 40
1
 40
1
 40
1
 10
235.853668
 20
56.373692
 30
0.0
 10
235.853668
 20
56.851986
 30
0.0
 10
235.684858
 20
57.241856
 30
0.0
 10
235.347238
 20
57.543303
 30
0.0
  0
SPLINE
  5
257
100
AcDbEntity
  8
Calque_1
 62
7
100
AcDbSpline
 70
8
 71
3
 72
8
 73
4
 74
0
 40
0
 40
0
 40
0
 40
0
 40
1
 40
1
 40
1
 40
1
 10
235.347238
 20
57.543303
 30
0.0
 10
235.013638
 20
57.844748
 30
0.0
 10
234.577546
 20
57.995471
 30
0.0
 10
234.038963
 20
57.995471
 30
0.0
  0
SPLINE
  5
258
100
AcDbEntity
  8
Calque_1
 62
7
100
AcDbSpline
 70
8
 71
3
 72
8
 73
4
 74
0
 40
0
 40
0
 40
0
 40
0
 40
1
 40
1
 40
1
 40
1
 10
234.038963
 20
57.995471
 30
0.0
 10
233.657131
 20
57.995471
 30
0.0
 10
233.253194
 20
57.929152
 30
0.0
 10
232.827151
 20
57.796516
 30
0.0
  0
SPLINE
  5
259
100
AcDbEntity
  8
Calque_1
 62
7
100
AcDbSpline
 70
8
 71
3
 72
8
 73
4
 74
0
 40
0
 40
0
 40
0
 40
0
 40
1
 40
1
 40
1
 40
1
 10
232.827151
 20
57.796516
 30
0.0
 10
232.405127
 20
57.663881
 30
0.0
 10
231.952958
 20
57.462917
 30
0.0
 10
231.470644
 20
57.193624
 30
0.0
  0
LINE
  5
25a
100
AcDbEntity
  8
Calque_1
 62
7
100
AcDbLine
 10
231.470644
 20
57.193624
 30
0.0
 11
231.470644
 21
58.423523
 31
0.0
  0
SPLINE
  5
25b
100
AcDbEntity
  8
Calque_1
 62
7
100
AcDbSpline
 70
8
 71
3
 72
8
 73
4
 74
0
 40
0
 40
0
 40
0
 40
0
 40
1
 40
1
 40
1
 40
1
 10
231.470644
 20
58.423523
 30
0.0
 10
231.960996
 20
58.620469
 30
0.0
 10
232.419194
 20
58.769182
 30
0.0
 10
232.845239
 20
58.869663
 30
0.0
  0
SPLINE
  5
25c
100
AcDbEntity
  8
Calque_1
 62
7
100
AcDbSpline
 70
8
 71
3
 72
8
 73
4
 74
0
 40
0
 40
0
 40
0
 40
0
 40
1
 40
1
 40
1
 40
1
 10
232.845239
 20
58.869663
 30
0.0
 10
233.271281
 20
58.970145
 30
0.0
 10
233.661151
 20
59.020386
 30
0.0
 10
234.014847
 20
59.020386
 30
0.0
  0
SPLINE
  5
25d
100
AcDbEntity
  8
Calque_1
 62
7
100
AcDbSpline
 70
8
 71
3
 72
8
 73
4
 74
0
 40
0
 40
0
 40
0
 40
0
 40
1
 40
1
 40
1
 40
1
 10
234.014847
 20
59.020386
 30
0.0
 10
234.947320
 20
59.020386
 30
0.0
 10
235.690887
 20
58.787268
 30
0.0
 10
236.245548
 20
58.321031
 30
0.0
  0
SPLINE
  5
25e
100
AcDbEntity
  8
Calque_1
 62
7
100
AcDbSpline
 70
8
 71
3
 72
8
 73
4
 74
0
 40
0
 40
0
 40
0
 40
0
 40
1
 40
1
 40
1
 40
1
 10
236.245548
 20
58.321031
 30
0.0
 10
236.800207
 20
57.854796
 30
0.0
 10
237.077536
 20
57.231809
 30
0.0
 10
237.077536
 20
56.452068
 30
0.0
  0
SPLINE
  5
25f
100
AcDbEntity
  8
Calque_1
 62
7
100
AcDbSpline
 70
8
 71
3
 72
8
 73
4
 74
0
 40
0
 40
0
 40
0
 40
0
 40
1
 40
1
 40
1
 40
1
 10
237.077536
 20
56.452068
 30
0.0
 10
237.077536
 20
56.082295
 30
0.0
 10
237.007199
 20
55.730608
 30
0.0
 10
236.866524
 20
55.397009
 30
0.0
  0
SPLINE
  5
260
100
AcDbEntity
  8
Calque_1
 62
7
100
AcDbSpline
 70
8
 71
3
 72
8
 73
4
 74
0
 40
0
 40
0
 40
0
 40
0
 40
1
 40
1
 40
1
 40
1
 10
236.866524
 20
55.397009
 30
0.0
 10
236.729869
 20
55.067428
 30
0.0
 10
236.478665
 20
54.677557
 30
0.0
 10
236.112912
 20
54.227398
 30
0.0
  0
SPLINE
  5
261
100
AcDbEntity
  8
Calque_1
 62
7
100
AcDbSpline
 70
8
 71
3
 72
8
 73
4
 74
0
 40
0
 40
0
 40
0
 40
0
 40
1
 40
1
 40
1
 40
1
 10
236.112912
 20
54.227398
 30
0.0
 10
236.012430
 20
54.110838
 30
0.0
 10
235.692897
 20
53.773219
 30
0.0
 10
235.154313
 20
53.214539
 30
0.0
  0
SPLINE
  5
262
100
AcDbEntity
  8
Calque_1
 62
7
100
AcDbSpline
 70
8
 71
3
 72
8
 73
4
 74
0
 40
0
 40
0
 40
0
 40
0
 40
1
 40
1
 40
1
 40
1
 10
235.154313
 20
53.214539
 30
0.0
 10
234.615730
 20
52.659880
 30
0.0
 10
233.856086
 20
51.882150
 30
0.0
 10
232.875383
 20
50.881349
 30
0.0
  0
LINE
  5
263
100
AcDbEntity
  8
Calque_1
 62
7
100
AcDbLine
 10
232.875383
 20
50.881349
 30
0.0
 11
232.875383
 21
50.881349
 31
0.0
  0
ENDSEC
  0
SECTION
  2
OBJECTS
  0
DICTIONARY
  5
C
330
0
100
AcDbDictionary
  3
ACAD_GROUP
350
D
  3
ACAD_MLINESTYLE
350
17
  0
DICTIONARY
  5
D
330
C
100
AcDbDictionary
  0
DICTIONARY
  5
1A
330
C
100
AcDbDictionary
  0
DICTIONARY
  5
17
330
C
100
AcDbDictionary
  3
STANDARD
350
18
  0
DICTIONARY
  5
19
330
C
100
AcDbDictionary
  0
ENDSEC
  0
EOF
