  0
SECTION
  2
HEADER
  9
$ACADVER
  1
AC1018
  9
$ACADMAINTVER
 70
     0
  9
$DWGCODEPAGE
  3
ANSI_932
  9
$INSBASE
 10
0.0
 20
0.0
 30
0.0
  9
$EXTMIN
 10
1.000000000000000E+20
 20
1.000000000000000E+20
 30
1.000000000000000E+20
  9
$EXTMAX
 10
-1.000000000000000E+20
 20
-1.000000000000000E+20
 30
-1.000000000000000E+20
  9
$LIMMIN
 10
0.0
 20
0.0
  9
$LIMMAX
 10
12.0
 20
9.0
  9
$ORTHOMODE
 70
     0
  9
$REGENMODE
 70
     1
  9
$FILLMODE
 70
     1
  9
$QTEXTMODE
 70
     0
  9
$MIRRTEXT
 70
     1
  9
$LTSCALE
 40
1.0
  9
$ATTMODE
 70
     1
  9
$TEXTSIZE
 40
0.2
  9
$TRACEWID
 40
0.05
  9
$TEXTSTYLE
  7
Standard
  9
$CLAYER
  8
0
  9
$CELTYPE
  6
ByLayer
  9
$CECOLOR
 62
   256
  9
$CELTSCALE
 40
1.0
  9
$DISPSILH
 70
     0
  9
$DIMSCALE
 40
1.0
  9
$DIMASZ
 40
0.18
  9
$DIMEXO
 40
0.0625
  9
$DIMDLI
 40
0.38
  9
$DIMRND
 40
0.0
  9
$DIMDLE
 40
0.0
  9
$DIMEXE
 40
0.18
  9
$DIMTP
 40
0.0
  9
$DIMTM
 40
0.0
  9
$DIMTXT
 40
0.18
  9
$DIMCEN
 40
0.09
  9
$DIMTSZ
 40
0.0
  9
$DIMTOL
 70
     0
  9
$DIMLIM
 70
     0
  9
$DIMTIH
 70
     1
  9
$DIMTOH
 70
     1
  9
$DIMSE1
 70
     0
  9
$DIMSE2
 70
     0
  9
$DIMTAD
 70
     0
  9
$DIMZIN
 70
     0
  9
$DIMBLK
  1

  9
$DIMASO
 70
     1
  9
$DIMSHO
 70
     1
  9
$DIMPOST
  1

  9
$DIMAPOST
  1

  9
$DIMALT
 70
     0
  9
$DIMALTD
 70
     2
  9
$DIMALTF
 40
25.4
  9
$DIMLFAC
 40
1.0
  9
$DIMTOFL
 70
     0
  9
$DIMTVP
 40
0.0
  9
$DIMTIX
 70
     0
  9
$DIMSOXD
 70
     0
  9
$DIMSAH
 70
     0
  9
$DIMBLK1
  1

  9
$DIMBLK2
  1

  9
$DIMSTYLE
  2
Standard
  9
$DIMCLRD
 70
     0
  9
$DIMCLRE
 70
     0
  9
$DIMCLRT
 70
     0
  9
$DIMTFAC
 40
1.0
  9
$DIMGAP
 40
0.09
  9
$DIMJUST
 70
     0
  9
$DIMSD1
 70
     0
  9
$DIMSD2
 70
     0
  9
$DIMTOLJ
 70
     1
  9
$DIMTZIN
 70
     0
  9
$DIMALTZ
 70
     0
  9
$DIMALTTZ
 70
     0
  9
$DIMUPT
 70
     0
  9
$DIMDEC
 70
     4
  9
$DIMTDEC
 70
     4
  9
$DIMALTU
 70
     2
  9
$DIMALTTD
 70
     2
  9
$DIMTXSTY
  7
Standard
  9
$DIMAUNIT
 70
     0
  9
$DIMADEC
 70
     0
  9
$DIMALTRND
 40
0.0
  9
$DIMAZIN
 70
     0
  9
$DIMDSEP
 70
    46
  9
$DIMATFIT
 70
     3
  9
$DIMFRAC
 70
     0
  9
$DIMLDRBLK
  1

  9
$DIMLUNIT
 70
     2
  9
$DIMLWD
 70
    -2
  9
$DIMLWE
 70
    -2
  9
$DIMTMOVE
 70
     0
  9
$LUNITS
 70
     2
  9
$LUPREC
 70
     4
  9
$SKETCHINC
 40
0.1
  9
$FILLETRAD
 40
0.5
  9
$AUNITS
 70
     0
  9
$AUPREC
 70
     0
  9
$MENU
  1
.
  9
$ELEVATION
 40
0.0
  9
$PELEVATION
 40
0.0
  9
$THICKNESS
 40
0.0
  9
$LIMCHECK
 70
     0
  9
$CHAMFERA
 40
0.5
  9
$CHAMFERB
 40
0.5
  9
$CHAMFERC
 40
1.0
  9
$CHAMFERD
 40
0.0
  9
$SKPOLY
 70
     0
  9
$TDCREATE
 40
2457934.483460648
  9
$TDUCREATE
 40
2457934.441793981
  9
$TDUPDATE
 40
2457934.48346066
  9
$TDUUPDATE
 40
2457934.441793993
  9
$TDINDWG
 40
0.0000000116
  9
$TDUSRTIMER
 40
0.0000000116
  9
$USRTIMER
 70
     1
  9
$ANGBASE
 50
0.0
  9
$ANGDIR
 70
     0
  9
$PDMODE
 70
     0
  9
$PDSIZE
 40
0.0
  9
$PLINEWID
 40
0.0
  9
$SPLFRAME
 70
     0
  9
$SPLINETYPE
 70
     6
  9
$SPLINESEGS
 70
     8
  9
$HANDSEED
  5
F1
  9
$SURFTAB1
 70
     6
  9
$SURFTAB2
 70
     6
  9
$SURFTYPE
 70
     6
  9
$SURFU
 70
     6
  9
$SURFV
 70
     6
  9
$UCSBASE
  2

  9
$UCSNAME
  2

  9
$UCSORG
 10
0.0
 20
0.0
 30
0.0
  9
$UCSXDIR
 10
1.0
 20
0.0
 30
0.0
  9
$UCSYDIR
 10
0.0
 20
1.0
 30
0.0
  9
$UCSORTHOREF
  2

  9
$UCSORTHOVIEW
 70
     0
  9
$UCSORGTOP
 10
0.0
 20
0.0
 30
0.0
  9
$UCSORGBOTTOM
 10
0.0
 20
0.0
 30
0.0
  9
$UCSORGLEFT
 10
0.0
 20
0.0
 30
0.0
  9
$UCSORGRIGHT
 10
0.0
 20
0.0
 30
0.0
  9
$UCSORGFRONT
 10
0.0
 20
0.0
 30
0.0
  9
$UCSORGBACK
 10
0.0
 20
0.0
 30
0.0
  9
$PUCSBASE
  2

  9
$PUCSNAME
  2

  9
$PUCSORG
 10
0.0
 20
0.0
 30
0.0
  9
$PUCSXDIR
 10
1.0
 20
0.0
 30
0.0
  9
$PUCSYDIR
 10
0.0
 20
1.0
 30
0.0
  9
$PUCSORTHOREF
  2

  9
$PUCSORTHOVIEW
 70
     0
  9
$PUCSORGTOP
 10
0.0
 20
0.0
 30
0.0
  9
$PUCSORGBOTTOM
 10
0.0
 20
0.0
 30
0.0
  9
$PUCSORGLEFT
 10
0.0
 20
0.0
 30
0.0
  9
$PUCSORGRIGHT
 10
0.0
 20
0.0
 30
0.0
  9
$PUCSORGFRONT
 10
0.0
 20
0.0
 30
0.0
  9
$PUCSORGBACK
 10
0.0
 20
0.0
 30
0.0
  9
$USERI1
 70
     0
  9
$USERI2
 70
     0
  9
$USERI3
 70
     0
  9
$USERI4
 70
     0
  9
$USERI5
 70
     0
  9
$USERR1
 40
0.0
  9
$USERR2
 40
0.0
  9
$USERR3
 40
0.0
  9
$USERR4
 40
0.0
  9
$USERR5
 40
0.0
  9
$WORLDVIEW
 70
     1
  9
$SHADEDGE
 70
     3
  9
$SHADEDIF
 70
    70
  9
$TILEMODE
 70
     1
  9
$MAXACTVP
 70
    64
  9
$PINSBASE
 10
0.0
 20
0.0
 30
0.0
  9
$PLIMCHECK
 70
     0
  9
$PEXTMIN
 10
1.000000000000000E+20
 20
1.000000000000000E+20
 30
1.000000000000000E+20
  9
$PEXTMAX
 10
-1.000000000000000E+20
 20
-1.000000000000000E+20
 30
-1.000000000000000E+20
  9
$PLIMMIN
 10
0.0
 20
0.0
  9
$PLIMMAX
 10
12.0
 20
9.0
  9
$UNITMODE
 70
     0
  9
$VISRETAIN
 70
     1
  9
$PLINEGEN
 70
     0
  9
$PSLTSCALE
 70
     1
  9
$TREEDEPTH
 70
  3020
  9
$CMLSTYLE
  2
Standard
  9
$CMLJUST
 70
     0
  9
$CMLSCALE
 40
1.0
  9
$PROXYGRAPHICS
 70
     1
  9
$MEASUREMENT
 70
     0
  9
$CELWEIGHT
370
    -1
  9
$ENDCAPS
280
     0
  9
$JOINSTYLE
280
     0
  9
$LWDISPLAY
290
     1
  9
$INSUNITS
 70
     1
  9
$HYPERLINKBASE
  1

  9
$STYLESHEET
  1

  9
$XEDIT
290
     1
  9
$CEPSNTYPE
380
     0
  9
$PSTYLEMODE
290
     1
  9
$FINGERPRINTGUID
  2
{5DEEDB5E-D5D5-EC2D-8A02-0478F098E1A7}
  9
$VERSIONGUID
  2
{FAEB1C32-E019-11D5-929B-00C0DF256EC4}
  9
$EXTNAMES
290
     1
  9
$PSVPSCALE
 40
0.0
  9
$OLESTARTUP
290
     0
  9
$SORTENTS
280
   127
  9
$INDEXCTL
280
     0
  9
$HIDETEXT
280
     1
  9
$XCLIPFRAME
290
     0
  9
$HALOGAP
280
     0
  9
$OBSCOLOR
 70
   257
  9
$OBSLTYPE
280
     0
  9
$INTERSECTIONDISPLAY
280
     0
  9
$INTERSECTIONCOLOR
 70
   257
  9
$DIMASSOC
280
     2
  9
$PROJECTNAME
  1

  0
ENDSEC
  0
SECTION
  2
CLASSES
  0
CLASS
  1
ACDBDICTIONARYWDFLT
  2
AcDbDictionaryWithDefault
  3
ObjectDBX Classes
 90
        0
 91
        3
280
     0
281
     0
  0
CLASS
  1
VISUALSTYLE
  2
AcDbVisualStyle
  3
ObjectDBX Classes
 90
     4095
 91
        3
280
     0
281
     0
  0
ENDSEC
  0
SECTION
  2
TABLES
  0
TABLE
  2
VPORT
  5
8
330
0
100
AcDbSymbolTable
 70
     1
  0
VPORT
  5
29
330
8
100
AcDbSymbolTableRecord
100
AcDbViewportTableRecord
  2
*Active
 70
     0
 10
0.0
 20
0.0
 11
1.0
 21
1.0
 12
0.0
 22
0.0
 13
0.0
 23
0.0
 14
0.5
 24
0.5
 15
0.5
 25
0.5
 16
0.0
 26
0.0
 36
1.0
 17
227.9193352023518
 27
-148.4999796178229
 37
0.0
 40
296.9999592356459
 41
1.589225665384905
 42
50.0
 43
0.0
 44
0.0
 50
0.0
 51
0.0
 71
     0
 72
   100
 73
     1
 74
     3
 75
     0
 76
     0
 77
     0
 78
     0
281
     0
 65
     1
110
0.0
120
0.0
130
0.0
111
1.0
121
0.0
131
0.0
112
0.0
122
1.0
132
0.0
 79
     0
146
0.0
  0
ENDTAB
  0
TABLE
  2
LTYPE
  5
5
330
0
100
AcDbSymbolTable
 70
     1
  0
LTYPE
  5
14
330
5
100
AcDbSymbolTableRecord
100
AcDbLinetypeTableRecord
  2
ByBlock
 70
     0
  3

 72
    65
 73
     0
 40
0.0
  0
LTYPE
  5
15
330
5
100
AcDbSymbolTableRecord
100
AcDbLinetypeTableRecord
  2
ByLayer
 70
     0
  3

 72
    65
 73
     0
 40
0.0
  0
LTYPE
  5
16
330
5
100
AcDbSymbolTableRecord
100
AcDbLinetypeTableRecord
  2
Continuous
 70
     0
  3
Solid line
 72
    65
 73
     0
 40
0.0
  0
ENDTAB
  0
TABLE
  2
LAYER
  5
2
330
0
100
AcDbSymbolTable
 70
     2
  0
LAYER
  5
10
330
2
100
AcDbSymbolTableRecord
100
AcDbLayerTableRecord
  2
0
 70
     0
 62
     7
  6
Continuous
370
    -3
390
F
  0
LAYER
  5
3B
330
2
100
AcDbSymbolTableRecord
100
AcDbLayerTableRecord
  2
Layer 1
 70
     0
 62
     7
  6
Continuous
370
    -3
390
F
  0
ENDTAB
  0
TABLE
  2
STYLE
  5
3
330
0
100
AcDbSymbolTable
 70
     1
  0
STYLE
  5
11
330
3
100
AcDbSymbolTableRecord
100
AcDbTextStyleTableRecord
  2
Standard
 70
     0
 40
0.0
 41
1.0
 50
0.0
 71
     0
 42
0.2
  3
txt
  4

  0
ENDTAB
  0
TABLE
  2
VIEW
  5
6
330
0
100
AcDbSymbolTable
 70
     0
  0
ENDTAB
  0
TABLE
  2
UCS
  5
7
330
0
100
AcDbSymbolTable
 70
     0
  0
ENDTAB
  0
TABLE
  2
APPID
  5
9
330
0
100
AcDbSymbolTable
 70
     1
  0
APPID
  5
12
330
9
100
AcDbSymbolTableRecord
100
AcDbRegAppTableRecord
  2
ACAD
 70
     0
  0
ENDTAB
  0
TABLE
  2
DIMSTYLE
  5
A
330
0
100
AcDbSymbolTable
 70
     1
100
AcDbDimStyleTable
  0
DIMSTYLE
105
27
330
A
100
AcDbSymbolTableRecord
100
AcDbDimStyleTableRecord
  2
Standard
 70
     0
340
11
  0
ENDTAB
  0
TABLE
  2
BLOCK_RECORD
  5
1
330
0
100
AcDbSymbolTable
 70
    38
  0
BLOCK_RECORD
  5
1F
330
1
100
AcDbSymbolTableRecord
100
AcDbBlockTableRecord
  2
*Model_Space
340
22
  0
BLOCK_RECORD
  5
1B
330
1
100
AcDbSymbolTableRecord
100
AcDbBlockTableRecord
  2
*Paper_Space
340
1E
  0
BLOCK_RECORD
  5
23
330
1
100
AcDbSymbolTableRecord
100
AcDbBlockTableRecord
  2
*Paper_Space0
340
26
  0
BLOCK_RECORD
  5
3C
330
1
100
AcDbSymbolTableRecord
100
AcDbBlockTableRecord
  2
block 2
340
0
102
{BLKREFS
331
3D
102
}
  0
BLOCK_RECORD
  5
40
330
1
100
AcDbSymbolTableRecord
100
AcDbBlockTableRecord
  2
block 3
340
0
102
{BLKREFS
331
41
102
}
  0
BLOCK_RECORD
  5
45
330
1
100
AcDbSymbolTableRecord
100
AcDbBlockTableRecord
  2
block 4
340
0
102
{BLKREFS
331
46
102
}
  0
BLOCK_RECORD
  5
4A
330
1
100
AcDbSymbolTableRecord
100
AcDbBlockTableRecord
  2
block 5
340
0
102
{BLKREFS
331
4B
102
}
  0
BLOCK_RECORD
  5
4F
330
1
100
AcDbSymbolTableRecord
100
AcDbBlockTableRecord
  2
block 6
340
0
102
{BLKREFS
331
50
102
}
  0
BLOCK_RECORD
  5
54
330
1
100
AcDbSymbolTableRecord
100
AcDbBlockTableRecord
  2
block 7
340
0
102
{BLKREFS
331
55
102
}
  0
BLOCK_RECORD
  5
59
330
1
100
AcDbSymbolTableRecord
100
AcDbBlockTableRecord
  2
block 8
340
0
102
{BLKREFS
331
5A
102
}
  0
BLOCK_RECORD
  5
5E
330
1
100
AcDbSymbolTableRecord
100
AcDbBlockTableRecord
  2
block 9
340
0
102
{BLKREFS
331
5F
102
}
  0
BLOCK_RECORD
  5
62
330
1
100
AcDbSymbolTableRecord
100
AcDbBlockTableRecord
  2
block 10
340
0
102
{BLKREFS
331
63
102
}
  0
BLOCK_RECORD
  5
67
330
1
100
AcDbSymbolTableRecord
100
AcDbBlockTableRecord
  2
block 11
340
0
102
{BLKREFS
331
68
102
}
  0
BLOCK_RECORD
  5
6C
330
1
100
AcDbSymbolTableRecord
100
AcDbBlockTableRecord
  2
block 12
340
0
102
{BLKREFS
331
6D
102
}
  0
BLOCK_RECORD
  5
71
330
1
100
AcDbSymbolTableRecord
100
AcDbBlockTableRecord
  2
block 13
340
0
102
{BLKREFS
331
72
102
}
  0
BLOCK_RECORD
  5
76
330
1
100
AcDbSymbolTableRecord
100
AcDbBlockTableRecord
  2
block 14
340
0
102
{BLKREFS
331
77
102
}
  0
BLOCK_RECORD
  5
7B
330
1
100
AcDbSymbolTableRecord
100
AcDbBlockTableRecord
  2
block 15
340
0
102
{BLKREFS
331
7C
102
}
  0
BLOCK_RECORD
  5
80
330
1
100
AcDbSymbolTableRecord
100
AcDbBlockTableRecord
  2
block 16
340
0
102
{BLKREFS
331
81
102
}
  0
BLOCK_RECORD
  5
85
330
1
100
AcDbSymbolTableRecord
100
AcDbBlockTableRecord
  2
block 17
340
0
102
{BLKREFS
331
86
102
}
  0
BLOCK_RECORD
  5
89
330
1
100
AcDbSymbolTableRecord
100
AcDbBlockTableRecord
  2
block 18
340
0
102
{BLKREFS
331
8A
102
}
  0
BLOCK_RECORD
  5
8E
330
1
100
AcDbSymbolTableRecord
100
AcDbBlockTableRecord
  2
block 19
340
0
102
{BLKREFS
331
8F
102
}
  0
BLOCK_RECORD
  5
93
330
1
100
AcDbSymbolTableRecord
100
AcDbBlockTableRecord
  2
block 20
340
0
102
{BLKREFS
331
94
102
}
  0
BLOCK_RECORD
  5
98
330
1
100
AcDbSymbolTableRecord
100
AcDbBlockTableRecord
  2
block 21
340
0
102
{BLKREFS
331
99
102
}
  0
BLOCK_RECORD
  5
9D
330
1
100
AcDbSymbolTableRecord
100
AcDbBlockTableRecord
  2
block 22
340
0
102
{BLKREFS
331
9E
102
}
  0
BLOCK_RECORD
  5
A2
330
1
100
AcDbSymbolTableRecord
100
AcDbBlockTableRecord
  2
block 23
340
0
102
{BLKREFS
331
A3
102
}
  0
BLOCK_RECORD
  5
A7
330
1
100
AcDbSymbolTableRecord
100
AcDbBlockTableRecord
  2
block 24
340
0
102
{BLKREFS
331
A8
102
}
  0
BLOCK_RECORD
  5
AB
330
1
100
AcDbSymbolTableRecord
100
AcDbBlockTableRecord
  2
block 25
340
0
102
{BLKREFS
331
AC
102
}
  0
BLOCK_RECORD
  5
B0
330
1
100
AcDbSymbolTableRecord
100
AcDbBlockTableRecord
  2
block 26
340
0
102
{BLKREFS
331
B1
102
}
  0
BLOCK_RECORD
  5
B5
330
1
100
AcDbSymbolTableRecord
100
AcDbBlockTableRecord
  2
block 27
340
0
102
{BLKREFS
331
B6
102
}
  0
BLOCK_RECORD
  5
BA
330
1
100
AcDbSymbolTableRecord
100
AcDbBlockTableRecord
  2
block 28
340
0
102
{BLKREFS
331
BB
102
}
  0
BLOCK_RECORD
  5
BF
330
1
100
AcDbSymbolTableRecord
100
AcDbBlockTableRecord
  2
block 29
340
0
102
{BLKREFS
331
C0
102
}
  0
BLOCK_RECORD
  5
C4
330
1
100
AcDbSymbolTableRecord
100
AcDbBlockTableRecord
  2
block 30
340
0
102
{BLKREFS
331
C5
102
}
  0
BLOCK_RECORD
  5
C9
330
1
100
AcDbSymbolTableRecord
100
AcDbBlockTableRecord
  2
block 31
340
0
102
{BLKREFS
331
CA
102
}
  0
BLOCK_RECORD
  5
CD
330
1
100
AcDbSymbolTableRecord
100
AcDbBlockTableRecord
  2
block 32
340
0
102
{BLKREFS
331
CE
102
}
  0
BLOCK_RECORD
  5
D2
330
1
100
AcDbSymbolTableRecord
100
AcDbBlockTableRecord
  2
block 33
340
0
102
{BLKREFS
331
D3
102
}
  0
BLOCK_RECORD
  5
D7
330
1
100
AcDbSymbolTableRecord
100
AcDbBlockTableRecord
  2
block 34
340
0
102
{BLKREFS
331
D8
102
}
  0
BLOCK_RECORD
  5
DC
330
1
100
AcDbSymbolTableRecord
100
AcDbBlockTableRecord
  2
block 35
340
0
102
{BLKREFS
331
DD
102
}
  0
BLOCK_RECORD
  5
E1
330
1
100
AcDbSymbolTableRecord
100
AcDbBlockTableRecord
  2
block 36
340
0
102
{BLKREFS
331
E2
102
}
  0
BLOCK_RECORD
  5
E6
330
1
100
AcDbSymbolTableRecord
100
AcDbBlockTableRecord
  2
block 37
340
0
102
{BLKREFS
331
E7
102
}
  0
BLOCK_RECORD
  5
EB
330
1
100
AcDbSymbolTableRecord
100
AcDbBlockTableRecord
  2
block 38
340
0
102
{BLKREFS
331
EC
102
}
  0
ENDTAB
  0
ENDSEC
  0
SECTION
  2
BLOCKS
  0
BLOCK
  5
20
330
1F
100
AcDbEntity
  8
0
100
AcDbBlockBegin
  2
*Model_Space
 70
     0
 71
     0
 10
0.0
 20
0.0
 30
0.0
  3
*Model_Space
  1

  0
ENDBLK
  5
21
330
1F
100
AcDbEntity
  8
0
100
AcDbBlockEnd
  0
BLOCK
  5
1C
330
1B
100
AcDbEntity
 67
     1
  8
0
100
AcDbBlockBegin
  2
*Paper_Space
 70
     0
 71
     0
 10
0.0
 20
0.0
 30
0.0
  3
*Paper_Space
  1

  0
ENDBLK
  5
1D
330
1B
100
AcDbEntity
 67
     1
  8
0
100
AcDbBlockEnd
  0
BLOCK
  5
24
330
23
100
AcDbEntity
  8
0
100
AcDbBlockBegin
  2
*Paper_Space0
 70
     0
 71
     0
 10
0.0
 20
0.0
 30
0.0
  3
*Paper_Space0
  1

  0
ENDBLK
  5
25
330
23
100
AcDbEntity
  8
0
100
AcDbBlockEnd
  0
BLOCK
  5
3E
330
3C
100
AcDbEntity
  8
0
100
AcDbBlockBegin
  2
block 2
 70
     0
 71
     0
 10
0.0
 20
0.0
 30
0.0
  3
block 2
  1

  0
INSERT
  5
41
330
3C
100
AcDbEntity
  8
Layer 1
100
AcDbBlockReference
  2
block 3
 10
0.0
 20
0.0
 30
0.0
  0
INSERT
  5
46
330
3C
100
AcDbEntity
  8
Layer 1
100
AcDbBlockReference
  2
block 4
 10
0.0
 20
0.0
 30
0.0
  0
INSERT
  5
4B
330
3C
100
AcDbEntity
  8
Layer 1
100
AcDbBlockReference
  2
block 5
 10
0.0
 20
0.0
 30
0.0
  0
INSERT
  5
50
330
3C
100
AcDbEntity
  8
Layer 1
100
AcDbBlockReference
  2
block 6
 10
0.0
 20
0.0
 30
0.0
  0
INSERT
  5
55
330
3C
100
AcDbEntity
  8
Layer 1
100
AcDbBlockReference
  2
block 7
 10
0.0
 20
0.0
 30
0.0
  0
INSERT
  5
5A
330
3C
100
AcDbEntity
  8
Layer 1
100
AcDbBlockReference
  2
block 8
 10
0.0
 20
0.0
 30
0.0
  0
ENDBLK
  5
3F
330
3C
100
AcDbEntity
  8
0
100
AcDbBlockEnd
  0
BLOCK
  5
42
330
40
100
AcDbEntity
  8
0
100
AcDbBlockBegin
  2
block 3
 70
     0
 71
     0
 10
0.0
 20
0.0
 30
0.0
  3
block 3
  1

  0
SPLINE
  5
44
330
40
100
AcDbEntity
  8
Layer 1
 62
     7
420
 16777215
370
    25
100
AcDbSpline
210
0.0
220
0.0
230
1.0
 70
    11
 71
     3
 72
    20
 73
    16
 74
     0
 42
0.0000000001
 43
0.0000000001
 40
0.0
 40
0.0
 40
0.0
 40
0.0
 40
1.0
 40
1.0
 40
1.0
 40
2.0
 40
2.0
 40
2.0
 40
3.0
 40
3.0
 40
3.0
 40
4.0
 40
4.0
 40
4.0
 40
5.0
 40
5.0
 40
5.0
 40
5.0
 10
45.65268282278822
 20
-8.552449542132722
 30
0.0
 10
21.90426160476699
 20
-8.552449542132722
 30
0.0
 10
2.65237901409385
 20
-27.80433213280586
 30
0.0
 10
2.65237901409385
 20
-51.55275335082709
 30
0.0
 10
2.65237901409385
 20
-75.30117456884832
 30
0.0
 10
21.90443385954125
 20
-94.5523681404244
 30
0.0
 10
45.65268282278822
 20
-94.5523681404244
 30
0.0
 10
69.40110404080944
 20
-94.5523681404244
 30
0.0
 10
88.65264212193406
 20
-75.30117456884832
 30
0.0
 10
88.65264212193406
 20
-51.55275335082709
 30
0.0
 10
88.65264212193406
 20
-27.80433213280586
 30
0.0
 10
69.40110404080944
 20
-8.552449542132722
 30
0.0
 10
45.65268282278822
 20
-8.552449542132722
 30
0.0
 10
45.65268282278822
 20
-8.552449542132722
 30
0.0
 10
45.65268282278822
 20
-8.552449542132722
 30
0.0
 10
45.65268282278822
 20
-8.552449542132722
 30
0.0
  0
ENDBLK
  5
43
330
40
100
AcDbEntity
  8
0
100
AcDbBlockEnd
  0
BLOCK
  5
47
330
45
100
AcDbEntity
  8
0
100
AcDbBlockBegin
  2
block 4
 70
     0
 71
     0
 10
0.0
 20
0.0
 30
0.0
  3
block 4
  1

  0
SPLINE
  5
49
330
45
100
AcDbEntity
  8
Layer 1
 62
    72
420
  7386667
370
    25
100
AcDbSpline
210
0.0
220
0.0
230
1.0
 70
    11
 71
     3
 72
    20
 73
    16
 74
     0
 42
0.0000000001
 43
0.0000000001
 40
0.0
 40
0.0
 40
0.0
 40
0.0
 40
1.0
 40
1.0
 40
1.0
 40
2.0
 40
2.0
 40
2.0
 40
3.0
 40
3.0
 40
3.0
 40
4.0
 40
4.0
 40
4.0
 40
5.0
 40
5.0
 40
5.0
 40
5.0
 10
56.90229762032304
 20
-50.05275877654931
 30
0.0
 10
56.07409666566897
 20
-50.05275877654931
 30
0.0
 10
55.40230304604526
 20
-50.72386337707598
 30
0.0
 10
55.40230304604526
 20
-51.55275335082709
 30
0.0
 10
55.40230304604526
 20
-52.38095430548115
 30
0.0
 10
56.07409666566897
 20
-53.05274792510487
 30
0.0
 10
56.90229762032304
 20
-53.05274792510487
 30
0.0
 10
57.73084308452562
 20
-53.05274792510487
 30
0.0
 10
58.40229219460082
 20
-52.38095430548115
 30
0.0
 10
58.40229219460082
 20
-51.55275335082709
 30
0.0
 10
58.40229219460082
 20
-50.72386337707598
 30
0.0
 10
57.73084308452562
 20
-50.05275877654931
 30
0.0
 10
56.90229762032304
 20
-50.05275877654931
 30
0.0
 10
56.90229762032304
 20
-50.05275877654931
 30
0.0
 10
56.90229762032304
 20
-50.05275877654931
 30
0.0
 10
56.90229762032304
 20
-50.05275877654931
 30
0.0
  0
ENDBLK
  5
48
330
45
100
AcDbEntity
  8
0
100
AcDbBlockEnd
  0
BLOCK
  5
4C
330
4A
100
AcDbEntity
  8
0
100
AcDbBlockBegin
  2
block 5
 70
     0
 71
     0
 10
0.0
 20
0.0
 30
0.0
  3
block 5
  1

  0
SPLINE
  5
4E
330
4A
100
AcDbEntity
  8
Layer 1
 62
    72
420
  7386667
370
    25
100
AcDbSpline
210
0.0
220
0.0
230
1.0
 70
    11
 71
     3
 72
    20
 73
    16
 74
     0
 42
0.0000000001
 43
0.0000000001
 40
0.0
 40
0.0
 40
0.0
 40
0.0
 40
1.0
 40
1.0
 40
1.0
 40
2.0
 40
2.0
 40
2.0
 40
3.0
 40
3.0
 40
3.0
 40
4.0
 40
4.0
 40
4.0
 40
5.0
 40
5.0
 40
5.0
 40
5.0
 10
23.15241969907301
 20
-61.30237357408413
 30
0.0
 10
22.32421874441895
 20
-61.30237357408413
 30
0.0
 10
21.65242512479523
 20
-61.97416719370785
 30
0.0
 10
21.65242512479523
 20
-62.80236814836191
 30
0.0
 10
21.65242512479523
 20
-63.63125812211302
 30
0.0
 10
22.32421874441895
 20
-64.30236272263969
 30
0.0
 10
23.15241969907301
 20
-64.30236272263969
 30
0.0
 10
23.98096516327559
 20
-64.30236272263969
 30
0.0
 10
24.65275878289931
 20
-63.63125812211302
 30
0.0
 10
24.65275878289931
 20
-62.80236814836191
 30
0.0
 10
24.65275878289931
 20
-61.97416719370785
 30
0.0
 10
23.98096516327559
 20
-61.30237357408413
 30
0.0
 10
23.15241969907301
 20
-61.30237357408413
 30
0.0
 10
23.15241969907301
 20
-61.30237357408413
 30
0.0
 10
23.15241969907301
 20
-61.30237357408413
 30
0.0
 10
23.15241969907301
 20
-61.30237357408413
 30
0.0
  0
ENDBLK
  5
4D
330
4A
100
AcDbEntity
  8
0
100
AcDbBlockEnd
  0
BLOCK
  5
51
330
4F
100
AcDbEntity
  8
0
100
AcDbBlockBegin
  2
block 6
 70
     0
 71
     0
 10
0.0
 20
0.0
 30
0.0
  3
block 6
  1

  0
SPLINE
  5
53
330
4F
100
AcDbEntity
  8
Layer 1
 62
    72
420
  7386667
370
    25
100
AcDbSpline
210
0.0
220
0.0
230
1.0
 70
    11
 71
     3
 72
    20
 73
    16
 74
     0
 42
0.0000000001
 43
0.0000000001
 40
0.0
 40
0.0
 40
0.0
 40
0.0
 40
1.0
 40
1.0
 40
1.0
 40
2.0
 40
2.0
 40
2.0
 40
3.0
 40
3.0
 40
3.0
 40
4.0
 40
4.0
 40
4.0
 40
5.0
 40
5.0
 40
5.0
 40
5.0
 10
23.15241969907301
 20
-50.05275877654931
 30
0.0
 10
22.32421874441895
 20
-50.05275877654931
 30
0.0
 10
21.65242512479523
 20
-50.72386337707598
 30
0.0
 10
21.65242512479523
 20
-51.55275335082709
 30
0.0
 10
21.65242512479523
 20
-52.38095430548115
 30
0.0
 10
22.32421874441895
 20
-53.05274792510487
 30
0.0
 10
23.15241969907301
 20
-53.05274792510487
 30
0.0
 10
23.98096516327559
 20
-53.05274792510487
 30
0.0
 10
24.65275878289931
 20
-52.38095430548115
 30
0.0
 10
24.65275878289931
 20
-51.55275335082709
 30
0.0
 10
24.65275878289931
 20
-50.72386337707598
 30
0.0
 10
23.98096516327559
 20
-50.05275877654931
 30
0.0
 10
23.15241969907301
 20
-50.05275877654931
 30
0.0
 10
23.15241969907301
 20
-50.05275877654931
 30
0.0
 10
23.15241969907301
 20
-50.05275877654931
 30
0.0
 10
23.15241969907301
 20
-50.05275877654931
 30
0.0
  0
ENDBLK
  5
52
330
4F
100
AcDbEntity
  8
0
100
AcDbBlockEnd
  0
BLOCK
  5
56
330
54
100
AcDbEntity
  8
0
100
AcDbBlockBegin
  2
block 7
 70
     0
 71
     0
 10
0.0
 20
0.0
 30
0.0
  3
block 7
  1

  0
SPLINE
  5
58
330
54
100
AcDbEntity
  8
Layer 1
 62
    72
420
  7386667
370
    25
100
AcDbSpline
210
0.0
220
0.0
230
1.0
 70
    11
 71
     3
 72
    20
 73
    16
 74
     0
 42
0.0000000001
 43
0.0000000001
 40
0.0
 40
0.0
 40
0.0
 40
0.0
 40
1.0
 40
1.0
 40
1.0
 40
2.0
 40
2.0
 40
2.0
 40
3.0
 40
3.0
 40
3.0
 40
4.0
 40
4.0
 40
4.0
 40
5.0
 40
5.0
 40
5.0
 40
5.0
 10
68.15260143695491
 20
-50.05275877654931
 30
0.0
 10
67.3237114632038
 20
-50.05275877654931
 30
0.0
 10
66.65260686267713
 20
-50.72386337707598
 30
0.0
 10
66.65260686267713
 20
-51.55275335082709
 30
0.0
 10
66.65260686267713
 20
-52.38095430548115
 30
0.0
 10
67.3237114632038
 20
-53.05274792510487
 30
0.0
 10
68.15260143695491
 20
-53.05274792510487
 30
0.0
 10
68.98114690115749
 20
-53.05274792510487
 30
0.0
 10
69.65259601123269
 20
-52.38095430548115
 30
0.0
 10
69.65259601123269
 20
-51.55275335082709
 30
0.0
 10
69.65259601123269
 20
-50.72386337707598
 30
0.0
 10
68.98114690115749
 20
-50.05275877654931
 30
0.0
 10
68.15260143695491
 20
-50.05275877654931
 30
0.0
 10
68.15260143695491
 20
-50.05275877654931
 30
0.0
 10
68.15260143695491
 20
-50.05275877654931
 30
0.0
 10
68.15260143695491
 20
-50.05275877654931
 30
0.0
  0
ENDBLK
  5
57
330
54
100
AcDbEntity
  8
0
100
AcDbBlockEnd
  0
BLOCK
  5
5B
330
59
100
AcDbEntity
  8
0
100
AcDbBlockBegin
  2
block 8
 70
     0
 71
     0
 10
0.0
 20
0.0
 30
0.0
  3
block 8
  1

  0
SPLINE
  5
5D
330
59
100
AcDbEntity
  8
Layer 1
 62
    72
420
  7386667
370
    25
100
AcDbSpline
210
0.0
220
0.0
230
1.0
 70
    11
 71
     3
 72
    20
 73
    16
 74
     0
 42
0.0000000001
 43
0.0000000001
 40
0.0
 40
0.0
 40
0.0
 40
0.0
 40
1.0
 40
1.0
 40
1.0
 40
2.0
 40
2.0
 40
2.0
 40
3.0
 40
3.0
 40
3.0
 40
4.0
 40
4.0
 40
4.0
 40
5.0
 40
5.0
 40
5.0
 40
5.0
 10
23.15241969907301
 20
-38.80245495991744
 30
0.0
 10
22.32421874441895
 20
-38.80245495991744
 30
0.0
 10
21.65242512479523
 20
-39.47424857954116
 30
0.0
 10
21.65242512479523
 20
-40.30244953419523
 30
0.0
 10
21.65242512479523
 20
-41.13065048884928
 30
0.0
 10
22.32421874441895
 20
-41.802444108473
 30
0.0
 10
23.15241969907301
 20
-41.802444108473
 30
0.0
 10
23.98096516327559
 20
-41.802444108473
 30
0.0
 10
24.65275878289931
 20
-41.13065048884928
 30
0.0
 10
24.65275878289931
 20
-40.30244953419523
 30
0.0
 10
24.65275878289931
 20
-39.47424857954116
 30
0.0
 10
23.98096516327559
 20
-38.80245495991744
 30
0.0
 10
23.15241969907301
 20
-38.80245495991744
 30
0.0
 10
23.15241969907301
 20
-38.80245495991744
 30
0.0
 10
23.15241969907301
 20
-38.80245495991744
 30
0.0
 10
23.15241969907301
 20
-38.80245495991744
 30
0.0
  0
ENDBLK
  5
5C
330
59
100
AcDbEntity
  8
0
100
AcDbBlockEnd
  0
BLOCK
  5
60
330
5E
100
AcDbEntity
  8
0
100
AcDbBlockBegin
  2
block 9
 70
     0
 71
     0
 10
0.0
 20
0.0
 30
0.0
  3
block 9
  1

  0
INSERT
  5
63
330
5E
100
AcDbEntity
  8
Layer 1
100
AcDbBlockReference
  2
block 10
 10
0.0
 20
0.0
 30
0.0
  0
INSERT
  5
68
330
5E
100
AcDbEntity
  8
Layer 1
100
AcDbBlockReference
  2
block 11
 10
0.0
 20
0.0
 30
0.0
  0
INSERT
  5
6D
330
5E
100
AcDbEntity
  8
Layer 1
100
AcDbBlockReference
  2
block 12
 10
0.0
 20
0.0
 30
0.0
  0
INSERT
  5
72
330
5E
100
AcDbEntity
  8
Layer 1
100
AcDbBlockReference
  2
block 13
 10
0.0
 20
0.0
 30
0.0
  0
INSERT
  5
77
330
5E
100
AcDbEntity
  8
Layer 1
100
AcDbBlockReference
  2
block 14
 10
0.0
 20
0.0
 30
0.0
  0
INSERT
  5
7C
330
5E
100
AcDbEntity
  8
Layer 1
100
AcDbBlockReference
  2
block 15
 10
0.0
 20
0.0
 30
0.0
  0
INSERT
  5
81
330
5E
100
AcDbEntity
  8
Layer 1
100
AcDbBlockReference
  2
block 16
 10
0.0
 20
0.0
 30
0.0
  0
ENDBLK
  5
61
330
5E
100
AcDbEntity
  8
0
100
AcDbBlockEnd
  0
BLOCK
  5
64
330
62
100
AcDbEntity
  8
0
100
AcDbBlockBegin
  2
block 10
 70
     0
 71
     0
 10
0.0
 20
0.0
 30
0.0
  3
block 10
  1

  0
SPLINE
  5
66
330
62
100
AcDbEntity
  8
Layer 1
 62
     7
420
 16777215
370
    25
100
AcDbSpline
210
0.0
220
0.0
230
1.0
 70
    11
 71
     3
 72
    20
 73
    16
 74
     0
 42
0.0000000001
 43
0.0000000001
 40
0.0
 40
0.0
 40
0.0
 40
0.0
 40
1.0
 40
1.0
 40
1.0
 40
2.0
 40
2.0
 40
2.0
 40
3.0
 40
3.0
 40
3.0
 40
4.0
 40
4.0
 40
4.0
 40
5.0
 40
5.0
 40
5.0
 40
5.0
 10
137.7590331686852
 20
-8.551760523035671
 30
0.0
 10
114.010611950664
 20
-8.551760523035671
 30
0.0
 10
94.75872935999088
 20
-27.80364311370881
 30
0.0
 10
94.75872935999088
 20
-51.55206433173004
 30
0.0
 10
94.75872935999088
 20
-75.30048554975127
 30
0.0
 10
114.010611950664
 20
-94.5523681404244
 30
0.0
 10
137.7590331686852
 20
-94.5523681404244
 30
0.0
 10
161.5074543867065
 20
-94.5523681404244
 30
0.0
 10
180.7589924678311
 20
-75.30048554975127
 30
0.0
 10
180.7589924678311
 20
-51.55206433173004
 30
0.0
 10
180.7589924678311
 20
-27.80364311370881
 30
0.0
 10
161.5074543867065
 20
-8.551760523035671
 30
0.0
 10
137.7590331686852
 20
-8.551760523035671
 30
0.0
 10
137.7590331686852
 20
-8.551760523035671
 30
0.0
 10
137.7590331686852
 20
-8.551760523035671
 30
0.0
 10
137.7590331686852
 20
-8.551760523035671
 30
0.0
  0
ENDBLK
  5
65
330
62
100
AcDbEntity
  8
0
100
AcDbBlockEnd
  0
BLOCK
  5
69
330
67
100
AcDbEntity
  8
0
100
AcDbBlockBegin
  2
block 11
 70
     0
 71
     0
 10
0.0
 20
0.0
 30
0.0
  3
block 11
  1

  0
SPLINE
  5
6B
330
67
100
AcDbEntity
  8
Layer 1
 62
    72
420
  7386667
370
    25
100
AcDbSpline
210
0.0
220
0.0
230
1.0
 70
    11
 71
     3
 72
    20
 73
    16
 74
     0
 42
0.0000000001
 43
0.0000000001
 40
0.0
 40
0.0
 40
0.0
 40
0.0
 40
1.0
 40
1.0
 40
1.0
 40
2.0
 40
2.0
 40
2.0
 40
3.0
 40
3.0
 40
3.0
 40
4.0
 40
4.0
 40
4.0
 40
5.0
 40
5.0
 40
5.0
 40
5.0
 10
126.5090738616019
 20
-61.30237357408413
 30
0.0
 10
125.6805283973993
 20
-61.30237357408413
 30
0.0
 10
125.0087347777756
 20
-61.97416719370785
 30
0.0
 10
125.0087347777756
 20
-62.80236814836191
 30
0.0
 10
125.0087347777756
 20
-63.63056910301597
 30
0.0
 10
125.6805283973993
 20
-64.30236272263969
 30
0.0
 10
126.5090738616019
 20
-64.30236272263969
 30
0.0
 10
127.337274816256
 20
-64.30236272263969
 30
0.0
 10
128.0090684358797
 20
-63.63056910301597
 30
0.0
 10
128.0090684358797
 20
-62.80236814836191
 30
0.0
 10
128.0090684358797
 20
-61.97416719370785
 30
0.0
 10
127.337274816256
 20
-61.30237357408413
 30
0.0
 10
126.5090738616019
 20
-61.30237357408413
 30
0.0
 10
126.5090738616019
 20
-61.30237357408413
 30
0.0
 10
126.5090738616019
 20
-61.30237357408413
 30
0.0
 10
126.5090738616019
 20
-61.30237357408413
 30
0.0
  0
ENDBLK
  5
6A
330
67
100
AcDbEntity
  8
0
100
AcDbBlockEnd
  0
BLOCK
  5
6E
330
6C
100
AcDbEntity
  8
0
100
AcDbBlockBegin
  2
block 12
 70
     0
 71
     0
 10
0.0
 20
0.0
 30
0.0
  3
block 12
  1

  0
SPLINE
  5
70
330
6C
100
AcDbEntity
  8
Layer 1
 62
    72
420
  7386667
370
    25
100
AcDbSpline
210
0.0
220
0.0
230
1.0
 70
    11
 71
     3
 72
    20
 73
    16
 74
     0
 42
0.0000000001
 43
0.0000000001
 40
0.0
 40
0.0
 40
0.0
 40
0.0
 40
1.0
 40
1.0
 40
1.0
 40
2.0
 40
2.0
 40
2.0
 40
3.0
 40
3.0
 40
3.0
 40
4.0
 40
4.0
 40
4.0
 40
5.0
 40
5.0
 40
5.0
 40
5.0
 10
160.2589517828519
 20
-61.30237357408413
 30
0.0
 10
159.4307508281979
 20
-61.30237357408413
 30
0.0
 10
158.7589572085741
 20
-61.97416719370785
 30
0.0
 10
158.7589572085741
 20
-62.80236814836191
 30
0.0
 10
158.7589572085741
 20
-63.63056910301597
 30
0.0
 10
159.4307508281979
 20
-64.30236272263969
 30
0.0
 10
160.2589517828519
 20
-64.30236272263969
 30
0.0
 10
161.0874972470545
 20
-64.30236272263969
 30
0.0
 10
161.7592908666782
 20
-63.63056910301597
 30
0.0
 10
161.7592908666782
 20
-62.80236814836191
 30
0.0
 10
161.7592908666782
 20
-61.97416719370785
 30
0.0
 10
161.0874972470545
 20
-61.30237357408413
 30
0.0
 10
160.2589517828519
 20
-61.30237357408413
 30
0.0
 10
160.2589517828519
 20
-61.30237357408413
 30
0.0
 10
160.2589517828519
 20
-61.30237357408413
 30
0.0
 10
160.2589517828519
 20
-61.30237357408413
 30
0.0
  0
ENDBLK
  5
6F
330
6C
100
AcDbEntity
  8
0
100
AcDbBlockEnd
  0
BLOCK
  5
73
330
71
100
AcDbEntity
  8
0
100
AcDbBlockBegin
  2
block 13
 70
     0
 71
     0
 10
0.0
 20
0.0
 30
0.0
  3
block 13
  1

  0
SPLINE
  5
75
330
71
100
AcDbEntity
  8
Layer 1
 62
    72
420
  7386667
370
    25
100
AcDbSpline
210
0.0
220
0.0
230
1.0
 70
    11
 71
     3
 72
    20
 73
    16
 74
     0
 42
0.0000000001
 43
0.0000000001
 40
0.0
 40
0.0
 40
0.0
 40
0.0
 40
1.0
 40
1.0
 40
1.0
 40
2.0
 40
2.0
 40
2.0
 40
3.0
 40
3.0
 40
3.0
 40
4.0
 40
4.0
 40
4.0
 40
5.0
 40
5.0
 40
5.0
 40
5.0
 10
126.5090738616019
 20
-72.552677390716
 30
0.0
 10
125.6805283973993
 20
-72.552677390716
 30
0.0
 10
125.0087347777756
 20
-73.22378199124267
 30
0.0
 10
125.0087347777756
 20
-74.05267196499378
 30
0.0
 10
125.0087347777756
 20
-74.88087291964784
 30
0.0
 10
125.6805283973993
 20
-75.55266653927156
 30
0.0
 10
126.5090738616019
 20
-75.55266653927156
 30
0.0
 10
127.337274816256
 20
-75.55266653927156
 30
0.0
 10
128.0090684358797
 20
-74.88087291964784
 30
0.0
 10
128.0090684358797
 20
-74.05267196499378
 30
0.0
 10
128.0090684358797
 20
-73.22378199124267
 30
0.0
 10
127.337274816256
 20
-72.552677390716
 30
0.0
 10
126.5090738616019
 20
-72.552677390716
 30
0.0
 10
126.5090738616019
 20
-72.552677390716
 30
0.0
 10
126.5090738616019
 20
-72.552677390716
 30
0.0
 10
126.5090738616019
 20
-72.552677390716
 30
0.0
  0
ENDBLK
  5
74
330
71
100
AcDbEntity
  8
0
100
AcDbBlockEnd
  0
BLOCK
  5
78
330
76
100
AcDbEntity
  8
0
100
AcDbBlockBegin
  2
block 14
 70
     0
 71
     0
 10
0.0
 20
0.0
 30
0.0
  3
block 14
  1

  0
SPLINE
  5
7A
330
76
100
AcDbEntity
  8
Layer 1
 62
    72
420
  7386667
370
    25
100
AcDbSpline
210
0.0
220
0.0
230
1.0
 70
    11
 71
     3
 72
    20
 73
    16
 74
     0
 42
0.0000000001
 43
0.0000000001
 40
0.0
 40
0.0
 40
0.0
 40
0.0
 40
1.0
 40
1.0
 40
1.0
 40
2.0
 40
2.0
 40
2.0
 40
3.0
 40
3.0
 40
3.0
 40
4.0
 40
4.0
 40
4.0
 40
5.0
 40
5.0
 40
5.0
 40
5.0
 10
126.5090738616019
 20
-27.55215114328557
 30
0.0
 10
125.6805283973993
 20
-27.55215114328557
 30
0.0
 10
125.0087347777756
 20
-28.22394476290929
 30
0.0
 10
125.0087347777756
 20
-29.05214571756335
 30
0.0
 10
125.0087347777756
 20
-29.88103569131447
 30
0.0
 10
125.6805283973993
 20
-30.55214029184113
 30
0.0
 10
126.5090738616019
 20
-30.55214029184113
 30
0.0
 10
127.337274816256
 20
-30.55214029184113
 30
0.0
 10
128.0090684358797
 20
-29.88103569131447
 30
0.0
 10
128.0090684358797
 20
-29.05214571756335
 30
0.0
 10
128.0090684358797
 20
-28.22394476290929
 30
0.0
 10
127.337274816256
 20
-27.55215114328557
 30
0.0
 10
126.5090738616019
 20
-27.55215114328557
 30
0.0
 10
126.5090738616019
 20
-27.55215114328557
 30
0.0
 10
126.5090738616019
 20
-27.55215114328557
 30
0.0
 10
126.5090738616019
 20
-27.55215114328557
 30
0.0
  0
ENDBLK
  5
79
330
76
100
AcDbEntity
  8
0
100
AcDbBlockEnd
  0
BLOCK
  5
7D
330
7B
100
AcDbEntity
  8
0
100
AcDbBlockBegin
  2
block 15
 70
     0
 71
     0
 10
0.0
 20
0.0
 30
0.0
  3
block 15
  1

  0
SPLINE
  5
7F
330
7B
100
AcDbEntity
  8
Layer 1
 62
    72
420
  7386667
370
    25
100
AcDbSpline
210
0.0
220
0.0
230
1.0
 70
    11
 71
     3
 72
    20
 73
    16
 74
     0
 42
0.0000000001
 43
0.0000000001
 40
0.0
 40
0.0
 40
0.0
 40
0.0
 40
1.0
 40
1.0
 40
1.0
 40
2.0
 40
2.0
 40
2.0
 40
3.0
 40
3.0
 40
3.0
 40
4.0
 40
4.0
 40
4.0
 40
5.0
 40
5.0
 40
5.0
 40
5.0
 10
160.2589517828519
 20
-72.552677390716
 30
0.0
 10
159.4307508281979
 20
-72.552677390716
 30
0.0
 10
158.7589572085741
 20
-73.22378199124267
 30
0.0
 10
158.7589572085741
 20
-74.05267196499378
 30
0.0
 10
158.7589572085741
 20
-74.88087291964784
 30
0.0
 10
159.4307508281979
 20
-75.55266653927156
 30
0.0
 10
160.2589517828519
 20
-75.55266653927156
 30
0.0
 10
161.0874972470545
 20
-75.55266653927156
 30
0.0
 10
161.7592908666782
 20
-74.88087291964784
 30
0.0
 10
161.7592908666782
 20
-74.05267196499378
 30
0.0
 10
161.7592908666782
 20
-73.22378199124267
 30
0.0
 10
161.0874972470545
 20
-72.552677390716
 30
0.0
 10
160.2589517828519
 20
-72.552677390716
 30
0.0
 10
160.2589517828519
 20
-72.552677390716
 30
0.0
 10
160.2589517828519
 20
-72.552677390716
 30
0.0
 10
160.2589517828519
 20
-72.552677390716
 30
0.0
  0
ENDBLK
  5
7E
330
7B
100
AcDbEntity
  8
0
100
AcDbBlockEnd
  0
BLOCK
  5
82
330
80
100
AcDbEntity
  8
0
100
AcDbBlockBegin
  2
block 16
 70
     0
 71
     0
 10
0.0
 20
0.0
 30
0.0
  3
block 16
  1

  0
SPLINE
  5
84
330
80
100
AcDbEntity
  8
Layer 1
 62
    30
420
 15695129
370
    25
100
AcDbSpline
210
0.0
220
0.0
230
1.0
 70
    11
 71
     3
 72
    20
 73
    16
 74
     0
 42
0.0000000001
 43
0.0000000001
 40
0.0
 40
0.0
 40
0.0
 40
0.0
 40
1.0
 40
1.0
 40
1.0
 40
2.0
 40
2.0
 40
2.0
 40
3.0
 40
3.0
 40
3.0
 40
4.0
 40
4.0
 40
4.0
 40
5.0
 40
5.0
 40
5.0
 40
5.0
 10
126.5090738616019
 20
-72.552677390716
 30
0.0
 10
125.6805283973993
 20
-72.552677390716
 30
0.0
 10
125.0087347777756
 20
-73.22378199124267
 30
0.0
 10
125.0087347777756
 20
-74.05267196499378
 30
0.0
 10
125.0087347777756
 20
-74.88087291964784
 30
0.0
 10
125.6805283973993
 20
-75.55266653927156
 30
0.0
 10
126.5090738616019
 20
-75.55266653927156
 30
0.0
 10
127.337274816256
 20
-75.55266653927156
 30
0.0
 10
128.0090684358797
 20
-74.88087291964784
 30
0.0
 10
128.0090684358797
 20
-74.05267196499378
 30
0.0
 10
128.0090684358797
 20
-73.22378199124267
 30
0.0
 10
127.337274816256
 20
-72.552677390716
 30
0.0
 10
126.5090738616019
 20
-72.552677390716
 30
0.0
 10
126.5090738616019
 20
-72.552677390716
 30
0.0
 10
126.5090738616019
 20
-72.552677390716
 30
0.0
 10
126.5090738616019
 20
-72.552677390716
 30
0.0
  0
ENDBLK
  5
83
330
80
100
AcDbEntity
  8
0
100
AcDbBlockEnd
  0
BLOCK
  5
87
330
85
100
AcDbEntity
  8
0
100
AcDbBlockBegin
  2
block 17
 70
     0
 71
     0
 10
0.0
 20
0.0
 30
0.0
  3
block 17
  1

  0
INSERT
  5
8A
330
85
100
AcDbEntity
  8
Layer 1
100
AcDbBlockReference
  2
block 18
 10
0.0
 20
0.0
 30
0.0
  0
INSERT
  5
8F
330
85
100
AcDbEntity
  8
Layer 1
100
AcDbBlockReference
  2
block 19
 10
0.0
 20
0.0
 30
0.0
  0
INSERT
  5
94
330
85
100
AcDbEntity
  8
Layer 1
100
AcDbBlockReference
  2
block 20
 10
0.0
 20
0.0
 30
0.0
  0
INSERT
  5
99
330
85
100
AcDbEntity
  8
Layer 1
100
AcDbBlockReference
  2
block 21
 10
0.0
 20
0.0
 30
0.0
  0
INSERT
  5
9E
330
85
100
AcDbEntity
  8
Layer 1
100
AcDbBlockReference
  2
block 22
 10
0.0
 20
0.0
 30
0.0
  0
INSERT
  5
A3
330
85
100
AcDbEntity
  8
Layer 1
100
AcDbBlockReference
  2
block 23
 10
0.0
 20
0.0
 30
0.0
  0
ENDBLK
  5
88
330
85
100
AcDbEntity
  8
0
100
AcDbBlockEnd
  0
BLOCK
  5
8B
330
89
100
AcDbEntity
  8
0
100
AcDbBlockBegin
  2
block 18
 70
     0
 71
     0
 10
0.0
 20
0.0
 30
0.0
  3
block 18
  1

  0
SPLINE
  5
8D
330
89
100
AcDbEntity
  8
Layer 1
 62
     7
420
 16777215
370
    25
100
AcDbSpline
210
0.0
220
0.0
230
1.0
 70
    11
 71
     3
 72
    20
 73
    16
 74
     0
 42
0.0000000001
 43
0.0000000001
 40
0.0
 40
0.0
 40
0.0
 40
0.0
 40
1.0
 40
1.0
 40
1.0
 40
2.0
 40
2.0
 40
2.0
 40
3.0
 40
3.0
 40
3.0
 40
4.0
 40
4.0
 40
4.0
 40
5.0
 40
5.0
 40
5.0
 40
5.0
 10
229.8650390050338
 20
-8.552449542132722
 30
0.0
 10
206.1173068061096
 20
-8.552449542132722
 30
0.0
 10
186.8650797058879
 20
-27.80364311370881
 30
0.0
 10
186.8650797058879
 20
-51.55206433173004
 30
0.0
 10
186.8650797058879
 20
-75.30048554975127
 30
0.0
 10
206.1173068061096
 20
-94.5523681404244
 30
0.0
 10
229.8650390050338
 20
-94.5523681404244
 30
0.0
 10
253.6127712039579
 20
-94.5523681404244
 30
0.0
 10
272.8653428137281
 20
-75.30048554975127
 30
0.0
 10
272.8653428137281
 20
-51.55206433173004
 30
0.0
 10
272.8653428137281
 20
-27.80364311370881
 30
0.0
 10
253.6127712039579
 20
-8.552449542132722
 30
0.0
 10
229.8650390050338
 20
-8.552449542132722
 30
0.0
 10
229.8650390050338
 20
-8.552449542132722
 30
0.0
 10
229.8650390050338
 20
-8.552449542132722
 30
0.0
 10
229.8650390050338
 20
-8.552449542132722
 30
0.0
  0
ENDBLK
  5
8C
330
89
100
AcDbEntity
  8
0
100
AcDbBlockEnd
  0
BLOCK
  5
90
330
8E
100
AcDbEntity
  8
0
100
AcDbBlockBegin
  2
block 19
 70
     0
 71
     0
 10
0.0
 20
0.0
 30
0.0
  3
block 19
  1

  0
SPLINE
  5
92
330
8E
100
AcDbEntity
  8
Layer 1
 62
    72
420
  7386667
370
    25
100
AcDbSpline
210
0.0
220
0.0
230
1.0
 70
    11
 71
     3
 72
    20
 73
    16
 74
     0
 42
0.0000000001
 43
0.0000000001
 40
0.0
 40
0.0
 40
0.0
 40
0.0
 40
1.0
 40
1.0
 40
1.0
 40
2.0
 40
2.0
 40
2.0
 40
3.0
 40
3.0
 40
3.0
 40
4.0
 40
4.0
 40
4.0
 40
5.0
 40
5.0
 40
5.0
 40
5.0
 10
218.6150796979504
 20
-50.05206975745227
 30
0.0
 10
217.7868787432963
 20
-50.05206975745227
 30
0.0
 10
217.1150851236726
 20
-50.72386337707598
 30
0.0
 10
217.1150851236726
 20
-51.55206433173004
 30
0.0
 10
217.1150851236726
 20
-52.3802652863841
 30
0.0
 10
217.7868787432963
 20
-53.05205890600782
 30
0.0
 10
218.6150796979504
 20
-53.05205890600782
 30
0.0
 10
219.44431418125
 20
-53.05205890600782
 30
0.0
 10
220.1150742722282
 20
-52.3802652863841
 30
0.0
 10
220.1150742722282
 20
-51.55206433173004
 30
0.0
 10
220.1150742722282
 20
-50.72386337707598
 30
0.0
 10
219.44431418125
 20
-50.05206975745227
 30
0.0
 10
218.6150796979504
 20
-50.05206975745227
 30
0.0
 10
218.6150796979504
 20
-50.05206975745227
 30
0.0
 10
218.6150796979504
 20
-50.05206975745227
 30
0.0
 10
218.6150796979504
 20
-50.05206975745227
 30
0.0
  0
ENDBLK
  5
91
330
8E
100
AcDbEntity
  8
0
100
AcDbBlockEnd
  0
BLOCK
  5
95
330
93
100
AcDbEntity
  8
0
100
AcDbBlockBegin
  2
block 20
 70
     0
 71
     0
 10
0.0
 20
0.0
 30
0.0
  3
block 20
  1

  0
SPLINE
  5
97
330
93
100
AcDbEntity
  8
Layer 1
 62
    72
420
  7386667
370
    25
100
AcDbSpline
210
0.0
220
0.0
230
1.0
 70
    11
 71
     3
 72
    20
 73
    16
 74
     0
 42
0.0000000001
 43
0.0000000001
 40
0.0
 40
0.0
 40
0.0
 40
0.0
 40
1.0
 40
1.0
 40
1.0
 40
2.0
 40
2.0
 40
2.0
 40
3.0
 40
3.0
 40
3.0
 40
4.0
 40
4.0
 40
4.0
 40
5.0
 40
5.0
 40
5.0
 40
5.0
 10
229.8650390050338
 20
-72.55198837161895
 30
0.0
 10
229.0368380503797
 20
-72.55198837161895
 30
0.0
 10
228.365044430756
 20
-73.22378199124267
 30
0.0
 10
228.365044430756
 20
-74.05198294589673
 30
0.0
 10
228.365044430756
 20
-74.88018390055079
 30
0.0
 10
229.0368380503797
 20
-75.5519775201745
 30
0.0
 10
229.8650390050338
 20
-75.5519775201745
 30
0.0
 10
230.6932399596878
 20
-75.5519775201745
 30
0.0
 10
231.3650335793115
 20
-74.88018390055079
 30
0.0
 10
231.3650335793115
 20
-74.05198294589673
 30
0.0
 10
231.3650335793115
 20
-73.22378199124267
 30
0.0
 10
230.6932399596878
 20
-72.55198837161895
 30
0.0
 10
229.8650390050338
 20
-72.55198837161895
 30
0.0
 10
229.8650390050338
 20
-72.55198837161895
 30
0.0
 10
229.8650390050338
 20
-72.55198837161895
 30
0.0
 10
229.8650390050338
 20
-72.55198837161895
 30
0.0
  0
ENDBLK
  5
96
330
93
100
AcDbEntity
  8
0
100
AcDbBlockEnd
  0
BLOCK
  5
9A
330
98
100
AcDbEntity
  8
0
100
AcDbBlockBegin
  2
block 21
 70
     0
 71
     0
 10
0.0
 20
0.0
 30
0.0
  3
block 21
  1

  0
SPLINE
  5
9C
330
98
100
AcDbEntity
  8
Layer 1
 62
    72
420
  7386667
370
    25
100
AcDbSpline
210
0.0
220
0.0
230
1.0
 70
    11
 71
     3
 72
    20
 73
    16
 74
     0
 42
0.0000000001
 43
0.0000000001
 40
0.0
 40
0.0
 40
0.0
 40
0.0
 40
1.0
 40
1.0
 40
1.0
 40
2.0
 40
2.0
 40
2.0
 40
3.0
 40
3.0
 40
3.0
 40
4.0
 40
4.0
 40
4.0
 40
5.0
 40
5.0
 40
5.0
 40
5.0
 10
229.8650390050338
 20
-61.30237357408413
 30
0.0
 10
229.0368380503797
 20
-61.30237357408413
 30
0.0
 10
228.365044430756
 20
-61.97416719370785
 30
0.0
 10
228.365044430756
 20
-62.80167912926486
 30
0.0
 10
228.365044430756
 20
-63.62988008391892
 30
0.0
 10
229.0368380503797
 20
-64.30167370354263
 30
0.0
 10
229.8650390050338
 20
-64.30167370354263
 30
0.0
 10
230.6932399596878
 20
-64.30167370354263
 30
0.0
 10
231.3650335793115
 20
-63.62988008391892
 30
0.0
 10
231.3650335793115
 20
-62.80167912926486
 30
0.0
 10
231.3650335793115
 20
-61.97416719370785
 30
0.0
 10
230.6932399596878
 20
-61.30237357408413
 30
0.0
 10
229.8650390050338
 20
-61.30237357408413
 30
0.0
 10
229.8650390050338
 20
-61.30237357408413
 30
0.0
 10
229.8650390050338
 20
-61.30237357408413
 30
0.0
 10
229.8650390050338
 20
-61.30237357408413
 30
0.0
  0
ENDBLK
  5
9B
330
98
100
AcDbEntity
  8
0
100
AcDbBlockEnd
  0
BLOCK
  5
9F
330
9D
100
AcDbEntity
  8
0
100
AcDbBlockBegin
  2
block 22
 70
     0
 71
     0
 10
0.0
 20
0.0
 30
0.0
  3
block 22
  1

  0
SPLINE
  5
A1
330
9D
100
AcDbEntity
  8
Layer 1
 62
    72
420
  7386667
370
    25
100
AcDbSpline
210
0.0
220
0.0
230
1.0
 70
    11
 71
     3
 72
    20
 73
    16
 74
     0
 42
0.0000000001
 43
0.0000000001
 40
0.0
 40
0.0
 40
0.0
 40
0.0
 40
1.0
 40
1.0
 40
1.0
 40
2.0
 40
2.0
 40
2.0
 40
3.0
 40
3.0
 40
3.0
 40
4.0
 40
4.0
 40
4.0
 40
5.0
 40
5.0
 40
5.0
 40
5.0
 10
229.8650390050338
 20
-38.8017659408204
 30
0.0
 10
229.0368380503797
 20
-38.8017659408204
 30
0.0
 10
228.365044430756
 20
-39.47355956044411
 30
0.0
 10
228.365044430756
 20
-40.30176051509817
 30
0.0
 10
228.365044430756
 20
-41.13065048884928
 30
0.0
 10
229.0368380503797
 20
-41.80175508937595
 30
0.0
 10
229.8650390050338
 20
-41.80175508937595
 30
0.0
 10
230.6932399596878
 20
-41.80175508937595
 30
0.0
 10
231.3650335793115
 20
-41.13065048884928
 30
0.0
 10
231.3650335793115
 20
-40.30176051509817
 30
0.0
 10
231.3650335793115
 20
-39.47355956044411
 30
0.0
 10
230.6932399596878
 20
-38.8017659408204
 30
0.0
 10
229.8650390050338
 20
-38.8017659408204
 30
0.0
 10
229.8650390050338
 20
-38.8017659408204
 30
0.0
 10
229.8650390050338
 20
-38.8017659408204
 30
0.0
 10
229.8650390050338
 20
-38.8017659408204
 30
0.0
  0
ENDBLK
  5
A0
330
9D
100
AcDbEntity
  8
0
100
AcDbBlockEnd
  0
BLOCK
  5
A4
330
A2
100
AcDbEntity
  8
0
100
AcDbBlockBegin
  2
block 23
 70
     0
 71
     0
 10
0.0
 20
0.0
 30
0.0
  3
block 23
  1

  0
SPLINE
  5
A6
330
A2
100
AcDbEntity
  8
Layer 1
 62
    72
420
  7386667
370
    25
100
AcDbSpline
210
0.0
220
0.0
230
1.0
 70
    11
 71
     3
 72
    20
 73
    16
 74
     0
 42
0.0000000001
 43
0.0000000001
 40
0.0
 40
0.0
 40
0.0
 40
0.0
 40
1.0
 40
1.0
 40
1.0
 40
2.0
 40
2.0
 40
2.0
 40
3.0
 40
3.0
 40
3.0
 40
4.0
 40
4.0
 40
4.0
 40
5.0
 40
5.0
 40
5.0
 40
5.0
 10
229.8650390050338
 20
-27.55146212418853
 30
0.0
 10
229.0368380503797
 20
-27.55146212418853
 30
0.0
 10
228.365044430756
 20
-28.22325574381224
 30
0.0
 10
228.365044430756
 20
-29.05076767936925
 30
0.0
 10
228.365044430756
 20
-29.87965765312036
 30
0.0
 10
229.0368380503797
 20
-30.55145127274408
 30
0.0
 10
229.8650390050338
 20
-30.55145127274408
 30
0.0
 10
230.6932399596878
 20
-30.55145127274408
 30
0.0
 10
231.3650335793115
 20
-29.87965765312036
 30
0.0
 10
231.3650335793115
 20
-29.05076767936925
 30
0.0
 10
231.3650335793115
 20
-28.22325574381224
 30
0.0
 10
230.6932399596878
 20
-27.55146212418853
 30
0.0
 10
229.8650390050338
 20
-27.55146212418853
 30
0.0
 10
229.8650390050338
 20
-27.55146212418853
 30
0.0
 10
229.8650390050338
 20
-27.55146212418853
 30
0.0
 10
229.8650390050338
 20
-27.55146212418853
 30
0.0
  0
ENDBLK
  5
A5
330
A2
100
AcDbEntity
  8
0
100
AcDbBlockEnd
  0
BLOCK
  5
A9
330
A7
100
AcDbEntity
  8
0
100
AcDbBlockBegin
  2
block 24
 70
     0
 71
     0
 10
0.0
 20
0.0
 30
0.0
  3
block 24
  1

  0
INSERT
  5
AC
330
A7
100
AcDbEntity
  8
Layer 1
100
AcDbBlockReference
  2
block 25
 10
0.0
 20
0.0
 30
0.0
  0
INSERT
  5
B1
330
A7
100
AcDbEntity
  8
Layer 1
100
AcDbBlockReference
  2
block 26
 10
0.0
 20
0.0
 30
0.0
  0
INSERT
  5
B6
330
A7
100
AcDbEntity
  8
Layer 1
100
AcDbBlockReference
  2
block 27
 10
0.0
 20
0.0
 30
0.0
  0
INSERT
  5
BB
330
A7
100
AcDbEntity
  8
Layer 1
100
AcDbBlockReference
  2
block 28
 10
0.0
 20
0.0
 30
0.0
  0
INSERT
  5
C0
330
A7
100
AcDbEntity
  8
Layer 1
100
AcDbBlockReference
  2
block 29
 10
0.0
 20
0.0
 30
0.0
  0
INSERT
  5
C5
330
A7
100
AcDbEntity
  8
Layer 1
100
AcDbBlockReference
  2
block 30
 10
0.0
 20
0.0
 30
0.0
  0
ENDBLK
  5
AA
330
A7
100
AcDbEntity
  8
0
100
AcDbBlockEnd
  0
BLOCK
  5
AD
330
AB
100
AcDbEntity
  8
0
100
AcDbBlockBegin
  2
block 25
 70
     0
 71
     0
 10
0.0
 20
0.0
 30
0.0
  3
block 25
  1

  0
SPLINE
  5
AF
330
AB
100
AcDbEntity
  8
Layer 1
 62
     7
420
 16777215
370
    25
100
AcDbSpline
210
0.0
220
0.0
230
1.0
 70
    11
 71
     3
 72
    20
 73
    16
 74
     0
 42
0.0000000001
 43
0.0000000001
 40
0.0
 40
0.0
 40
0.0
 40
0.0
 40
1.0
 40
1.0
 40
1.0
 40
2.0
 40
2.0
 40
2.0
 40
3.0
 40
3.0
 40
3.0
 40
4.0
 40
4.0
 40
4.0
 40
5.0
 40
5.0
 40
5.0
 40
5.0
 10
321.9710448413823
 20
-8.552449542132722
 30
0.0
 10
298.2233126424581
 20
-8.552449542132722
 30
0.0
 10
278.9714300517849
 20
-27.80364311370881
 30
0.0
 10
278.9714300517849
 20
-51.55137531263299
 30
0.0
 10
278.9714300517849
 20
-75.29979653065422
 30
0.0
 10
298.2233126424581
 20
-94.55167912132737
 30
0.0
 10
321.9710448413823
 20
-94.55167912132737
 30
0.0
 10
345.7194660594035
 20
-94.55167912132737
 30
0.0
 10
364.9713486500766
 20
-75.29979653065422
 30
0.0
 10
364.9713486500766
 20
-51.55137531263299
 30
0.0
 10
364.9713486500766
 20
-27.80364311370881
 30
0.0
 10
345.7194660594035
 20
-8.552449542132722
 30
0.0
 10
321.9710448413823
 20
-8.552449542132722
 30
0.0
 10
321.9710448413823
 20
-8.552449542132722
 30
0.0
 10
321.9710448413823
 20
-8.552449542132722
 30
0.0
 10
321.9710448413823
 20
-8.552449542132722
 30
0.0
  0
ENDBLK
  5
AE
330
AB
100
AcDbEntity
  8
0
100
AcDbBlockEnd
  0
BLOCK
  5
B2
330
B0
100
AcDbEntity
  8
0
100
AcDbBlockBegin
  2
block 26
 70
     0
 71
     0
 10
0.0
 20
0.0
 30
0.0
  3
block 26
  1

  0
SPLINE
  5
B4
330
B0
100
AcDbEntity
  8
Layer 1
 62
    72
420
  7386667
370
    25
100
AcDbSpline
210
0.0
220
0.0
230
1.0
 70
    11
 71
     3
 72
    20
 73
    16
 74
     0
 42
0.0000000001
 43
0.0000000001
 40
0.0
 40
0.0
 40
0.0
 40
0.0
 40
1.0
 40
1.0
 40
1.0
 40
2.0
 40
2.0
 40
2.0
 40
3.0
 40
3.0
 40
3.0
 40
4.0
 40
4.0
 40
4.0
 40
5.0
 40
5.0
 40
5.0
 40
5.0
 10
333.2213486580141
 20
-61.30168455498708
 30
0.0
 10
332.392458684263
 20
-61.30168455498708
 30
0.0
 10
331.7213540837363
 20
-61.9734781746108
 30
0.0
 10
331.7213540837363
 20
-62.80167912926486
 30
0.0
 10
331.7213540837363
 20
-63.63056910301597
 30
0.0
 10
332.392458684263
 20
-64.30167370354263
 30
0.0
 10
333.2213486580141
 20
-64.30167370354263
 30
0.0
 10
334.0495496126682
 20
-64.30167370354263
 30
0.0
 10
334.7213432322919
 20
-63.63056910301597
 30
0.0
 10
334.7213432322919
 20
-62.80167912926486
 30
0.0
 10
334.7213432322919
 20
-61.9734781746108
 30
0.0
 10
334.0495496126682
 20
-61.30168455498708
 30
0.0
 10
333.2213486580141
 20
-61.30168455498708
 30
0.0
 10
333.2213486580141
 20
-61.30168455498708
 30
0.0
 10
333.2213486580141
 20
-61.30168455498708
 30
0.0
 10
333.2213486580141
 20
-61.30168455498708
 30
0.0
  0
ENDBLK
  5
B3
330
B0
100
AcDbEntity
  8
0
100
AcDbBlockEnd
  0
BLOCK
  5
B7
330
B5
100
AcDbEntity
  8
0
100
AcDbBlockBegin
  2
block 27
 70
     0
 71
     0
 10
0.0
 20
0.0
 30
0.0
  3
block 27
  1

  0
SPLINE
  5
B9
330
B5
100
AcDbEntity
  8
Layer 1
 62
    72
420
  7386667
370
    25
100
AcDbSpline
210
0.0
220
0.0
230
1.0
 70
    11
 71
     3
 72
    20
 73
    16
 74
     0
 42
0.0000000001
 43
0.0000000001
 40
0.0
 40
0.0
 40
0.0
 40
0.0
 40
1.0
 40
1.0
 40
1.0
 40
2.0
 40
2.0
 40
2.0
 40
3.0
 40
3.0
 40
3.0
 40
4.0
 40
4.0
 40
4.0
 40
5.0
 40
5.0
 40
5.0
 40
5.0
 10
299.4711262272156
 20
-27.55284016238263
 30
0.0
 10
298.6429252725615
 20
-27.55284016238263
 30
0.0
 10
297.9711316529378
 20
-28.22325574381224
 30
0.0
 10
297.9711316529378
 20
-29.05214571756335
 30
0.0
 10
297.9711316529378
 20
-29.88034667221741
 30
0.0
 10
298.6429252725615
 20
-30.55214029184113
 30
0.0
 10
299.4711262272156
 20
-30.55214029184113
 30
0.0
 10
300.3000162009667
 20
-30.55214029184113
 30
0.0
 10
300.9711208014933
 20
-29.88034667221741
 30
0.0
 10
300.9711208014933
 20
-29.05214571756335
 30
0.0
 10
300.9711208014933
 20
-28.22325574381224
 30
0.0
 10
300.3000162009667
 20
-27.55284016238263
 30
0.0
 10
299.4711262272156
 20
-27.55284016238263
 30
0.0
 10
299.4711262272156
 20
-27.55284016238263
 30
0.0
 10
299.4711262272156
 20
-27.55284016238263
 30
0.0
 10
299.4711262272156
 20
-27.55284016238263
 30
0.0
  0
ENDBLK
  5
B8
330
B5
100
AcDbEntity
  8
0
100
AcDbBlockEnd
  0
BLOCK
  5
BC
330
BA
100
AcDbEntity
  8
0
100
AcDbBlockBegin
  2
block 28
 70
     0
 71
     0
 10
0.0
 20
0.0
 30
0.0
  3
block 28
  1

  0
SPLINE
  5
BE
330
BA
100
AcDbEntity
  8
Layer 1
 62
    72
420
  7386667
370
    25
100
AcDbSpline
210
0.0
220
0.0
230
1.0
 70
    11
 71
     3
 72
    20
 73
    16
 74
     0
 42
0.0000000001
 43
0.0000000001
 40
0.0
 40
0.0
 40
0.0
 40
0.0
 40
1.0
 40
1.0
 40
1.0
 40
2.0
 40
2.0
 40
2.0
 40
3.0
 40
3.0
 40
3.0
 40
4.0
 40
4.0
 40
4.0
 40
5.0
 40
5.0
 40
5.0
 40
5.0
 10
310.7214300438474
 20
-38.8017659408204
 30
0.0
 10
309.8932290891934
 20
-38.8017659408204
 30
0.0
 10
309.2214354695697
 20
-39.47355956044411
 30
0.0
 10
309.2214354695697
 20
-40.30176051509817
 30
0.0
 10
309.2214354695697
 20
-41.13065048884928
 30
0.0
 10
309.8932290891934
 20
-41.80175508937595
 30
0.0
 10
310.7214300438474
 20
-41.80175508937595
 30
0.0
 10
311.5496309985015
 20
-41.80175508937595
 30
0.0
 10
312.2214246181252
 20
-41.13065048884928
 30
0.0
 10
312.2214246181252
 20
-40.30176051509817
 30
0.0
 10
312.2214246181252
 20
-39.47355956044411
 30
0.0
 10
311.5496309985015
 20
-38.8017659408204
 30
0.0
 10
310.7214300438474
 20
-38.8017659408204
 30
0.0
 10
310.7214300438474
 20
-38.8017659408204
 30
0.0
 10
310.7214300438474
 20
-38.8017659408204
 30
0.0
 10
310.7214300438474
 20
-38.8017659408204
 30
0.0
  0
ENDBLK
  5
BD
330
BA
100
AcDbEntity
  8
0
100
AcDbBlockEnd
  0
BLOCK
  5
C1
330
BF
100
AcDbEntity
  8
0
100
AcDbBlockBegin
  2
block 29
 70
     0
 71
     0
 10
0.0
 20
0.0
 30
0.0
  3
block 29
  1

  0
SPLINE
  5
C3
330
BF
100
AcDbEntity
  8
Layer 1
 62
    72
420
  7386667
370
    25
100
AcDbSpline
210
0.0
220
0.0
230
1.0
 70
    11
 71
     3
 72
    20
 73
    16
 74
     0
 42
0.0000000001
 43
0.0000000001
 40
0.0
 40
0.0
 40
0.0
 40
0.0
 40
1.0
 40
1.0
 40
1.0
 40
2.0
 40
2.0
 40
2.0
 40
3.0
 40
3.0
 40
3.0
 40
4.0
 40
4.0
 40
4.0
 40
5.0
 40
5.0
 40
5.0
 40
5.0
 10
333.2213486580141
 20
-72.55198837161895
 30
0.0
 10
332.392458684263
 20
-72.55198837161895
 30
0.0
 10
331.7213540837363
 20
-73.22309297214562
 30
0.0
 10
331.7213540837363
 20
-74.05198294589673
 30
0.0
 10
331.7213540837363
 20
-74.88018390055079
 30
0.0
 10
332.392458684263
 20
-75.5519775201745
 30
0.0
 10
333.2213486580141
 20
-75.5519775201745
 30
0.0
 10
334.0495496126682
 20
-75.5519775201745
 30
0.0
 10
334.7213432322919
 20
-74.88018390055079
 30
0.0
 10
334.7213432322919
 20
-74.05198294589673
 30
0.0
 10
334.7213432322919
 20
-73.22309297214562
 30
0.0
 10
334.0495496126682
 20
-72.55198837161895
 30
0.0
 10
333.2213486580141
 20
-72.55198837161895
 30
0.0
 10
333.2213486580141
 20
-72.55198837161895
 30
0.0
 10
333.2213486580141
 20
-72.55198837161895
 30
0.0
 10
333.2213486580141
 20
-72.55198837161895
 30
0.0
  0
ENDBLK
  5
C2
330
BF
100
AcDbEntity
  8
0
100
AcDbBlockEnd
  0
BLOCK
  5
C6
330
C4
100
AcDbEntity
  8
0
100
AcDbBlockBegin
  2
block 30
 70
     0
 71
     0
 10
0.0
 20
0.0
 30
0.0
  3
block 30
  1

  0
SPLINE
  5
C8
330
C4
100
AcDbEntity
  8
Layer 1
 62
    72
420
  7386667
370
    25
100
AcDbSpline
210
0.0
220
0.0
230
1.0
 70
    11
 71
     3
 72
    20
 73
    16
 74
     0
 42
0.0000000001
 43
0.0000000001
 40
0.0
 40
0.0
 40
0.0
 40
0.0
 40
1.0
 40
1.0
 40
1.0
 40
2.0
 40
2.0
 40
2.0
 40
3.0
 40
3.0
 40
3.0
 40
4.0
 40
4.0
 40
4.0
 40
5.0
 40
5.0
 40
5.0
 40
5.0
 10
321.9710448413823
 20
-50.05206975745227
 30
0.0
 10
321.1428438867282
 20
-50.05206975745227
 30
0.0
 10
320.4710502671045
 20
-50.72386337707598
 30
0.0
 10
320.4710502671045
 20
-51.55137531263299
 30
0.0
 10
320.4710502671045
 20
-52.3802652863841
 30
0.0
 10
321.1428438867282
 20
-53.05136988691077
 30
0.0
 10
321.9710448413823
 20
-53.05136988691077
 30
0.0
 10
322.7992457960363
 20
-53.05136988691077
 30
0.0
 10
323.47103941566
 20
-52.3802652863841
 30
0.0
 10
323.47103941566
 20
-51.55137531263299
 30
0.0
 10
323.47103941566
 20
-50.72386337707598
 30
0.0
 10
322.7992457960363
 20
-50.05206975745227
 30
0.0
 10
321.9710448413823
 20
-50.05206975745227
 30
0.0
 10
321.9710448413823
 20
-50.05206975745227
 30
0.0
 10
321.9710448413823
 20
-50.05206975745227
 30
0.0
 10
321.9710448413823
 20
-50.05206975745227
 30
0.0
  0
ENDBLK
  5
C7
330
C4
100
AcDbEntity
  8
0
100
AcDbBlockEnd
  0
BLOCK
  5
CB
330
C9
100
AcDbEntity
  8
0
100
AcDbBlockBegin
  2
block 31
 70
     0
 71
     0
 10
0.0
 20
0.0
 30
0.0
  3
block 31
  1

  0
INSERT
  5
CE
330
C9
100
AcDbEntity
  8
Layer 1
100
AcDbBlockReference
  2
block 32
 10
0.0
 20
0.0
 30
0.0
  0
INSERT
  5
D3
330
C9
100
AcDbEntity
  8
Layer 1
100
AcDbBlockReference
  2
block 33
 10
0.0
 20
0.0
 30
0.0
  0
INSERT
  5
D8
330
C9
100
AcDbEntity
  8
Layer 1
100
AcDbBlockReference
  2
block 34
 10
0.0
 20
0.0
 30
0.0
  0
INSERT
  5
DD
330
C9
100
AcDbEntity
  8
Layer 1
100
AcDbBlockReference
  2
block 35
 10
0.0
 20
0.0
 30
0.0
  0
INSERT
  5
E2
330
C9
100
AcDbEntity
  8
Layer 1
100
AcDbBlockReference
  2
block 36
 10
0.0
 20
0.0
 30
0.0
  0
INSERT
  5
E7
330
C9
100
AcDbEntity
  8
Layer 1
100
AcDbBlockReference
  2
block 37
 10
0.0
 20
0.0
 30
0.0
  0
INSERT
  5
EC
330
C9
100
AcDbEntity
  8
Layer 1
100
AcDbBlockReference
  2
block 38
 10
0.0
 20
0.0
 30
0.0
  0
ENDBLK
  5
CC
330
C9
100
AcDbEntity
  8
0
100
AcDbBlockEnd
  0
BLOCK
  5
CF
330
CD
100
AcDbEntity
  8
0
100
AcDbBlockBegin
  2
block 32
 70
     0
 71
     0
 10
0.0
 20
0.0
 30
0.0
  3
block 32
  1

  0
SPLINE
  5
D1
330
CD
100
AcDbEntity
  8
Layer 1
 62
     7
420
 16777215
370
    25
100
AcDbSpline
210
0.0
220
0.0
230
1.0
 70
    11
 71
     3
 72
    20
 73
    16
 74
     0
 42
0.0000000001
 43
0.0000000001
 40
0.0
 40
0.0
 40
0.0
 40
0.0
 40
1.0
 40
1.0
 40
1.0
 40
2.0
 40
2.0
 40
2.0
 40
3.0
 40
3.0
 40
3.0
 40
4.0
 40
4.0
 40
4.0
 40
5.0
 40
5.0
 40
5.0
 40
5.0
 10
414.0777396968278
 20
-8.551760523035671
 30
0.0
 10
390.3293184788066
 20
-8.551760523035671
 30
0.0
 10
371.0774358881334
 20
-27.80364311370881
 30
0.0
 10
371.0774358881334
 20
-51.55206433173004
 30
0.0
 10
371.0774358881334
 20
-75.30048554975127
 30
0.0
 10
390.3293184788066
 20
-94.5523681404244
 30
0.0
 10
414.0777396968278
 20
-94.5523681404244
 30
0.0
 10
437.826160914849
 20
-94.5523681404244
 30
0.0
 10
457.0773544864251
 20
-75.30048554975127
 30
0.0
 10
457.0773544864251
 20
-51.55206433173004
 30
0.0
 10
457.0773544864251
 20
-27.80364311370881
 30
0.0
 10
437.826160914849
 20
-8.551760523035671
 30
0.0
 10
414.0777396968278
 20
-8.551760523035671
 30
0.0
 10
414.0777396968278
 20
-8.551760523035671
 30
0.0
 10
414.0777396968278
 20
-8.551760523035671
 30
0.0
 10
414.0777396968278
 20
-8.551760523035671
 30
0.0
  0
ENDBLK
  5
D0
330
CD
100
AcDbEntity
  8
0
100
AcDbBlockEnd
  0
BLOCK
  5
D4
330
D2
100
AcDbEntity
  8
0
100
AcDbBlockBegin
  2
block 33
 70
     0
 71
     0
 10
0.0
 20
0.0
 30
0.0
  3
block 33
  1

  0
SPLINE
  5
D6
330
D2
100
AcDbEntity
  8
Layer 1
 62
    72
420
  7386667
370
    25
100
AcDbSpline
210
0.0
220
0.0
230
1.0
 70
    11
 71
     3
 72
    20
 73
    16
 74
     0
 42
0.0000000001
 43
0.0000000001
 40
0.0
 40
0.0
 40
0.0
 40
0.0
 40
1.0
 40
1.0
 40
1.0
 40
2.0
 40
2.0
 40
2.0
 40
3.0
 40
3.0
 40
3.0
 40
4.0
 40
4.0
 40
4.0
 40
5.0
 40
5.0
 40
5.0
 40
5.0
 10
391.5778210826611
 20
-72.55198837161895
 30
0.0
 10
390.7496201280071
 20
-72.55198837161895
 30
0.0
 10
390.0778265083833
 20
-73.22378199124267
 30
0.0
 10
390.0778265083833
 20
-74.05198294589673
 30
0.0
 10
390.0778265083833
 20
-74.88087291964784
 30
0.0
 10
390.7496201280071
 20
-75.5519775201745
 30
0.0
 10
391.5778210826611
 20
-75.5519775201745
 30
0.0
 10
392.4067110564122
 20
-75.5519775201745
 30
0.0
 10
393.0778156569389
 20
-74.88087291964784
 30
0.0
 10
393.0778156569389
 20
-74.05198294589673
 30
0.0
 10
393.0778156569389
 20
-73.22378199124267
 30
0.0
 10
392.4067110564122
 20
-72.55198837161895
 30
0.0
 10
391.5778210826611
 20
-72.55198837161895
 30
0.0
 10
391.5778210826611
 20
-72.55198837161895
 30
0.0
 10
391.5778210826611
 20
-72.55198837161895
 30
0.0
 10
391.5778210826611
 20
-72.55198837161895
 30
0.0
  0
ENDBLK
  5
D5
330
D2
100
AcDbEntity
  8
0
100
AcDbBlockEnd
  0
BLOCK
  5
D9
330
D7
100
AcDbEntity
  8
0
100
AcDbBlockBegin
  2
block 34
 70
     0
 71
     0
 10
0.0
 20
0.0
 30
0.0
  3
block 34
  1

  0
SPLINE
  5
DB
330
D7
100
AcDbEntity
  8
Layer 1
 62
    30
420
 15695129
370
    25
100
AcDbSpline
210
0.0
220
0.0
230
1.0
 70
    11
 71
     3
 72
    20
 73
    16
 74
     0
 42
0.0000000001
 43
0.0000000001
 40
0.0
 40
0.0
 40
0.0
 40
0.0
 40
1.0
 40
1.0
 40
1.0
 40
2.0
 40
2.0
 40
2.0
 40
3.0
 40
3.0
 40
3.0
 40
4.0
 40
4.0
 40
4.0
 40
5.0
 40
5.0
 40
5.0
 40
5.0
 10
436.5776583109945
 20
-27.55215114328557
 30
0.0
 10
435.7494573563404
 20
-27.55215114328557
 30
0.0
 10
435.0776637367167
 20
-28.22394476290929
 30
0.0
 10
435.0776637367167
 20
-29.05214571756335
 30
0.0
 10
435.0776637367167
 20
-29.88034667221741
 30
0.0
 10
435.7494573563404
 20
-30.55214029184113
 30
0.0
 10
436.5776583109945
 20
-30.55214029184113
 30
0.0
 10
437.4065482847456
 20
-30.55214029184113
 30
0.0
 10
438.0776528852723
 20
-29.88034667221741
 30
0.0
 10
438.0776528852723
 20
-29.05214571756335
 30
0.0
 10
438.0776528852723
 20
-28.22394476290929
 30
0.0
 10
437.4065482847456
 20
-27.55215114328557
 30
0.0
 10
436.5776583109945
 20
-27.55215114328557
 30
0.0
 10
436.5776583109945
 20
-27.55215114328557
 30
0.0
 10
436.5776583109945
 20
-27.55215114328557
 30
0.0
 10
436.5776583109945
 20
-27.55215114328557
 30
0.0
  0
ENDBLK
  5
DA
330
D7
100
AcDbEntity
  8
0
100
AcDbBlockEnd
  0
BLOCK
  5
DE
330
DC
100
AcDbEntity
  8
0
100
AcDbBlockBegin
  2
block 35
 70
     0
 71
     0
 10
0.0
 20
0.0
 30
0.0
  3
block 35
  1

  0
SPLINE
  5
E0
330
DC
100
AcDbEntity
  8
Layer 1
 62
    30
420
 15695129
370
    25
100
AcDbSpline
210
0.0
220
0.0
230
1.0
 70
    11
 71
     3
 72
    20
 73
    16
 74
     0
 42
0.0000000001
 43
0.0000000001
 40
0.0
 40
0.0
 40
0.0
 40
0.0
 40
1.0
 40
1.0
 40
1.0
 40
2.0
 40
2.0
 40
2.0
 40
3.0
 40
3.0
 40
3.0
 40
4.0
 40
4.0
 40
4.0
 40
5.0
 40
5.0
 40
5.0
 40
5.0
 10
391.5778210826611
 20
-72.55198837161895
 30
0.0
 10
390.7496201280071
 20
-72.55198837161895
 30
0.0
 10
390.0778265083833
 20
-73.22378199124267
 30
0.0
 10
390.0778265083833
 20
-74.05198294589673
 30
0.0
 10
390.0778265083833
 20
-74.88087291964784
 30
0.0
 10
390.7496201280071
 20
-75.5519775201745
 30
0.0
 10
391.5778210826611
 20
-75.5519775201745
 30
0.0
 10
392.4067110564122
 20
-75.5519775201745
 30
0.0
 10
393.0778156569389
 20
-74.88087291964784
 30
0.0
 10
393.0778156569389
 20
-74.05198294589673
 30
0.0
 10
393.0778156569389
 20
-73.22378199124267
 30
0.0
 10
392.4067110564122
 20
-72.55198837161895
 30
0.0
 10
391.5778210826611
 20
-72.55198837161895
 30
0.0
 10
391.5778210826611
 20
-72.55198837161895
 30
0.0
 10
391.5778210826611
 20
-72.55198837161895
 30
0.0
 10
391.5778210826611
 20
-72.55198837161895
 30
0.0
  0
ENDBLK
  5
DF
330
DC
100
AcDbEntity
  8
0
100
AcDbBlockEnd
  0
BLOCK
  5
E3
330
E1
100
AcDbEntity
  8
0
100
AcDbBlockBegin
  2
block 36
 70
     0
 71
     0
 10
0.0
 20
0.0
 30
0.0
  3
block 36
  1

  0
SPLINE
  5
E5
330
E1
100
AcDbEntity
  8
Layer 1
 62
    30
420
 15695129
370
    25
100
AcDbSpline
210
0.0
220
0.0
230
1.0
 70
    11
 71
     3
 72
    20
 73
    16
 74
     0
 42
0.0000000001
 43
0.0000000001
 40
0.0
 40
0.0
 40
0.0
 40
0.0
 40
1.0
 40
1.0
 40
1.0
 40
2.0
 40
2.0
 40
2.0
 40
3.0
 40
3.0
 40
3.0
 40
4.0
 40
4.0
 40
4.0
 40
5.0
 40
5.0
 40
5.0
 40
5.0
 10
425.3280435134596
 20
-38.80211045036892
 30
0.0
 10
424.4991535397086
 20
-38.80211045036892
 30
0.0
 10
423.8280489391819
 20
-39.47390406999263
 30
0.0
 10
423.8280489391819
 20
-40.3021050246467
 30
0.0
 10
423.8280489391819
 20
-41.13030597930076
 30
0.0
 10
424.4991535397086
 20
-41.80209959892448
 30
0.0
 10
425.3280435134596
 20
-41.80209959892448
 30
0.0
 10
426.1562444681138
 20
-41.80209959892448
 30
0.0
 10
426.8280380877375
 20
-41.13030597930076
 30
0.0
 10
426.8280380877375
 20
-40.3021050246467
 30
0.0
 10
426.8280380877375
 20
-39.47390406999263
 30
0.0
 10
426.1562444681138
 20
-38.80211045036892
 30
0.0
 10
425.3280435134596
 20
-38.80211045036892
 30
0.0
 10
425.3280435134596
 20
-38.80211045036892
 30
0.0
 10
425.3280435134596
 20
-38.80211045036892
 30
0.0
 10
425.3280435134596
 20
-38.80211045036892
 30
0.0
  0
ENDBLK
  5
E4
330
E1
100
AcDbEntity
  8
0
100
AcDbBlockEnd
  0
BLOCK
  5
E8
330
E6
100
AcDbEntity
  8
0
100
AcDbBlockBegin
  2
block 37
 70
     0
 71
     0
 10
0.0
 20
0.0
 30
0.0
  3
block 37
  1

  0
SPLINE
  5
EA
330
E6
100
AcDbEntity
  8
Layer 1
 62
    30
420
 15695129
370
    25
100
AcDbSpline
210
0.0
220
0.0
230
1.0
 70
    11
 71
     3
 72
    20
 73
    16
 74
     0
 42
0.0000000001
 43
0.0000000001
 40
0.0
 40
0.0
 40
0.0
 40
0.0
 40
1.0
 40
1.0
 40
1.0
 40
2.0
 40
2.0
 40
2.0
 40
3.0
 40
3.0
 40
3.0
 40
4.0
 40
4.0
 40
4.0
 40
5.0
 40
5.0
 40
5.0
 40
5.0
 10
425.3280435134596
 20
-27.55215114328557
 30
0.0
 10
424.4991535397086
 20
-27.55215114328557
 30
0.0
 10
423.8280489391819
 20
-28.22394476290929
 30
0.0
 10
423.8280489391819
 20
-29.05214571756335
 30
0.0
 10
423.8280489391819
 20
-29.88034667221741
 30
0.0
 10
424.4991535397086
 20
-30.55214029184113
 30
0.0
 10
425.3280435134596
 20
-30.55214029184113
 30
0.0
 10
426.1562444681138
 20
-30.55214029184113
 30
0.0
 10
426.8280380877375
 20
-29.88034667221741
 30
0.0
 10
426.8280380877375
 20
-29.05214571756335
 30
0.0
 10
426.8280380877375
 20
-28.22394476290929
 30
0.0
 10
426.1562444681138
 20
-27.55215114328557
 30
0.0
 10
425.3280435134596
 20
-27.55215114328557
 30
0.0
 10
425.3280435134596
 20
-27.55215114328557
 30
0.0
 10
425.3280435134596
 20
-27.55215114328557
 30
0.0
 10
425.3280435134596
 20
-27.55215114328557
 30
0.0
  0
ENDBLK
  5
E9
330
E6
100
AcDbEntity
  8
0
100
AcDbBlockEnd
  0
BLOCK
  5
ED
330
EB
100
AcDbEntity
  8
0
100
AcDbBlockBegin
  2
block 38
 70
     0
 71
     0
 10
0.0
 20
0.0
 30
0.0
  3
block 38
  1

  0
SPLINE
  5
EF
330
EB
100
AcDbEntity
  8
Layer 1
 62
    30
420
 15695129
370
    25
100
AcDbSpline
210
0.0
220
0.0
230
1.0
 70
    11
 71
     3
 72
    20
 73
    16
 74
     0
 42
0.0000000001
 43
0.0000000001
 40
0.0
 40
0.0
 40
0.0
 40
0.0
 40
1.0
 40
1.0
 40
1.0
 40
2.0
 40
2.0
 40
2.0
 40
3.0
 40
3.0
 40
3.0
 40
4.0
 40
4.0
 40
4.0
 40
5.0
 40
5.0
 40
5.0
 40
5.0
 10
436.5776583109945
 20
-38.80211045036892
 30
0.0
 10
435.7494573563404
 20
-38.80211045036892
 30
0.0
 10
435.0776637367167
 20
-39.47390406999263
 30
0.0
 10
435.0776637367167
 20
-40.3021050246467
 30
0.0
 10
435.0776637367167
 20
-41.13030597930076
 30
0.0
 10
435.7494573563404
 20
-41.80209959892448
 30
0.0
 10
436.5776583109945
 20
-41.80209959892448
 30
0.0
 10
437.4065482847456
 20
-41.80209959892448
 30
0.0
 10
438.0776528852723
 20
-41.13030597930076
 30
0.0
 10
438.0776528852723
 20
-40.3021050246467
 30
0.0
 10
438.0776528852723
 20
-39.47390406999263
 30
0.0
 10
437.4065482847456
 20
-38.80211045036892
 30
0.0
 10
436.5776583109945
 20
-38.80211045036892
 30
0.0
 10
436.5776583109945
 20
-38.80211045036892
 30
0.0
 10
436.5776583109945
 20
-38.80211045036892
 30
0.0
 10
436.5776583109945
 20
-38.80211045036892
 30
0.0
  0
ENDBLK
  5
EE
330
EB
100
AcDbEntity
  8
0
100
AcDbBlockEnd
  0
ENDSEC
  0
SECTION
  2
ENTITIES
  0
INSERT
  5
3D
330
1F
100
AcDbEntity
  8
Layer 1
100
AcDbBlockReference
  2
block 2
 10
0.0
 20
0.0
 30
0.0
  0
INSERT
  5
5F
330
1F
100
AcDbEntity
  8
Layer 1
100
AcDbBlockReference
  2
block 9
 10
0.0
 20
0.0
 30
0.0
  0
INSERT
  5
86
330
1F
100
AcDbEntity
  8
Layer 1
100
AcDbBlockReference
  2
block 17
 10
0.0
 20
0.0
 30
0.0
  0
INSERT
  5
A8
330
1F
100
AcDbEntity
  8
Layer 1
100
AcDbBlockReference
  2
block 24
 10
0.0
 20
0.0
 30
0.0
  0
INSERT
  5
CA
330
1F
100
AcDbEntity
  8
Layer 1
100
AcDbBlockReference
  2
block 31
 10
0.0
 20
0.0
 30
0.0
  0
ENDSEC
  0
SECTION
  2
OBJECTS
  0
DICTIONARY
  5
C
330
0
100
AcDbDictionary
281
     1
  3
ACAD_GROUP
350
D
  3
ACAD_LAYOUT
350
1A
  3
ACAD_MLINESTYLE
350
17
  3
ACAD_PLOTSETTINGS
350
19
  3
ACAD_PLOTSTYLENAME
350
E
  3
ACAD_TABLESTYLE
350
F0
  3
ACAD_VISUALSTYLE
350
2A
  0
DICTIONARY
  5
D
102
{ACAD_REACTORS
330
C
102
}
330
C
100
AcDbDictionary
281
     1
  0
DICTIONARY
  5
1A
102
{ACAD_REACTORS
330
C
102
}
330
C
100
AcDbDictionary
281
     1
  3
Layout1
350
1E
  3
Layout2
350
26
  3
Model
350
22
  0
DICTIONARY
  5
17
102
{ACAD_REACTORS
330
C
102
}
330
C
100
AcDbDictionary
281
     1
  3
Standard
350
18
  0
DICTIONARY
  5
19
102
{ACAD_REACTORS
330
C
102
}
330
C
100
AcDbDictionary
281
     1
  0
ACDBDICTIONARYWDFLT
  5
E
102
{ACAD_REACTORS
330
C
102
}
330
C
100
AcDbDictionary
281
     1
  3
Normal
350
F
100
AcDbDictionaryWithDefault
340
F
  0
DICTIONARY
  5
F0
102
{ACAD_REACTORS
330
C
102
}
330
C
100
AcDbDictionary
281
     1
  0
DICTIONARY
  5
2A
102
{ACAD_REACTORS
330
C
102
}
330
C
100
AcDbDictionary
281
     1
  3
2dWireframe
350
2F
  3
3D Hidden
350
31
  3
3dWireframe
350
30
  3
Basic
350
32
  3
Brighten
350
36
  3
ColorChange
350
3A
  3
Conceptual
350
34
  3
Dim
350
35
  3
Facepattern
350
39
  3
Flat
350
2B
  3
FlatWithEdges
350
2C
  3
Gouraud
350
2D
  3
GouraudWithEdges
350
2E
  3
Linepattern
350
38
  3
Realistic
350
33
  3
Thicken
350
37
  0
LAYOUT
  5
1E
102
{ACAD_REACTORS
330
1A
102
}
330
1A
100
AcDbPlotSettings
  1

  2
none_device
  4

  6

 40
0.0
 41
0.0
 42
0.0
 43
0.0
 44
0.0
 45
0.0
 46
0.0
 47
0.0
 48
0.0
 49
0.0
140
0.0
141
0.0
142
1.0
143
1.0
 70
   688
 72
     0
 73
     0
 74
     5
  7

 75
    16
 76
     0
 77
     2
 78
   300
147
1.0
148
0.0
149
0.0
100
AcDbLayout
  1
Layout1
 70
     1
 71
     1
 10
0.0
 20
0.0
 11
12.0
 21
9.0
 12
0.0
 22
0.0
 32
0.0
 14
1.000000000000000E+20
 24
1.000000000000000E+20
 34
1.000000000000000E+20
 15
-1.000000000000000E+20
 25
-1.000000000000000E+20
 35
-1.000000000000000E+20
146
0.0
 13
0.0
 23
0.0
 33
0.0
 16
1.0
 26
0.0
 36
0.0
 17
0.0
 27
1.0
 37
0.0
 76
     0
330
1B
  0
LAYOUT
  5
26
102
{ACAD_REACTORS
330
1A
102
}
330
1A
100
AcDbPlotSettings
  1

  2
none_device
  4

  6

 40
0.0
 41
0.0
 42
0.0
 43
0.0
 44
0.0
 45
0.0
 46
0.0
 47
0.0
 48
0.0
 49
0.0
140
0.0
141
0.0
142
1.0
143
1.0
 70
   688
 72
     0
 73
     0
 74
     5
  7

 75
    16
 76
     0
 77
     2
 78
   300
147
1.0
148
0.0
149
0.0
100
AcDbLayout
  1
Layout2
 70
     1
 71
     2
 10
0.0
 20
0.0
 11
0.0
 21
0.0
 12
0.0
 22
0.0
 32
0.0
 14
0.0
 24
0.0
 34
0.0
 15
0.0
 25
0.0
 35
0.0
146
0.0
 13
0.0
 23
0.0
 33
0.0
 16
1.0
 26
0.0
 36
0.0
 17
0.0
 27
1.0
 37
0.0
 76
     0
330
23
  0
LAYOUT
  5
22
102
{ACAD_REACTORS
330
1A
102
}
330
1A
100
AcDbPlotSettings
  1

  2
none_device
  4

  6

 40
0.0
 41
0.0
 42
0.0
 43
0.0
 44
0.0
 45
0.0
 46
0.0
 47
0.0
 48
0.0
 49
0.0
140
0.0
141
0.0
142
1.0
143
1.0
 70
  1712
 72
     0
 73
     0
 74
     0
  7

 75
     0
 76
     0
 77
     2
 78
   300
147
1.0
148
0.0
149
0.0
100
AcDbLayout
  1
Model
 70
     1
 71
     0
 10
0.0
 20
0.0
 11
12.0
 21
9.0
 12
0.0
 22
0.0
 32
0.0
 14
1.000000000000000E+20
 24
1.000000000000000E+20
 34
1.000000000000000E+20
 15
-1.000000000000000E+20
 25
-1.000000000000000E+20
 35
-1.000000000000000E+20
146
0.0
 13
0.0
 23
0.0
 33
0.0
 16
1.0
 26
0.0
 36
0.0
 17
0.0
 27
1.0
 37
0.0
 76
     0
330
1F
331
29
  0
MLINESTYLE
  5
18
102
{ACAD_REACTORS
330
17
102
}
330
17
100
AcDbMlineStyle
  2
Standard
 70
     0
  3

 62
   256
 51
90.0
 52
90.0
 71
     2
 49
0.5
 62
   256
  6
BYLAYER
 49
-0.5
 62
   256
  6
BYLAYER
  0
ACDBPLACEHOLDER
  5
F
102
{ACAD_REACTORS
330
E
102
}
330
E
  0
VISUALSTYLE
  5
2F
102
{ACAD_REACTORS
330
2A
102
}
330
2A
100
AcDbVisualStyle
  2
2dWireframe
 70
     4
 71
     0
 72
     2
 73
     0
 90
        0
 40
-0.6
 41
-30.0
 62
     5
 63
     7
421
 16777215
 74
     1
 91
        4
 64
     7
 65
   257
 75
     1
175
     1
 42
1.0
 92
        0
 66
   257
 43
1.0
 76
     1
 77
     6
 78
     2
 67
     7
 79
     5
170
     0
171
     0
290
     0
174
     0
 93
        1
 44
0.0
173
     0
291
     0
 45
0.0
1001
ACAD
1000
AcDbSavedByObjectVersion
1070
     0
  0
VISUALSTYLE
  5
31
102
{ACAD_REACTORS
330
2A
102
}
330
2A
100
AcDbVisualStyle
  2
3D Hidden
 70
     6
 71
     1
 72
     2
 73
     2
 90
        0
 40
-0.6
 41
-30.0
 62
     5
 63
     7
421
 16777215
 74
     2
 91
        2
 64
     7
 65
   257
 75
     2
175
     1
 42
40.0
 92
        0
 66
   257
 43
1.0
 76
     1
 77
     6
 78
     2
 67
     7
 79
     3
170
     0
171
     0
290
     0
174
     0
 93
        1
 44
0.0
173
     0
291
     0
 45
0.0
1001
ACAD
1000
AcDbSavedByObjectVersion
1070
     0
  0
VISUALSTYLE
  5
30
102
{ACAD_REACTORS
330
2A
102
}
330
2A
100
AcDbVisualStyle
  2
3dWireframe
 70
     5
 71
     0
 72
     2
 73
     0
 90
        0
 40
-0.6
 41
-30.0
 62
     5
 63
     7
421
 16777215
 74
     1
 91
        4
 64
     7
 65
   257
 75
     1
175
     1
 42
1.0
 92
        0
 66
   257
 43
1.0
 76
     1
 77
     6
 78
     2
 67
     7
 79
     5
170
     0
171
     0
290
     0
174
     0
 93
        1
 44
0.0
173
     0
291
     0
 45
0.0
1001
ACAD
1000
AcDbSavedByObjectVersion
1070
     0
  0
VISUALSTYLE
  5
32
102
{ACAD_REACTORS
330
2A
102
}
330
2A
100
AcDbVisualStyle
  2
Basic
 70
     7
 71
     1
 72
     0
 73
     1
 90
        0
 40
-0.6
 41
-30.0
 62
     5
 63
     7
421
 16777215
 74
     0
 91
        4
 64
     7
 65
   257
 75
     1
175
     1
 42
1.0
 92
        8
 66
     7
 43
1.0
 76
     1
 77
     6
 78
     2
 67
     7
 79
     5
170
     0
171
     0
290
     0
174
     0
 93
        1
 44
0.0
173
     0
291
     1
 45
0.0
1001
ACAD
1000
AcDbSavedByObjectVersion
1070
     0
  0
VISUALSTYLE
  5
36
102
{ACAD_REACTORS
330
2A
102
}
330
2A
100
AcDbVisualStyle
  2
Brighten
 70
    12
 71
     2
 72
     2
 73
     0
 90
        0
 40
-0.6
 41
-30.0
 62
     5
 63
     7
421
 16777215
 74
     1
 91
        4
 64
     7
 65
   257
 75
     1
175
     1
 42
1.0
 92
        8
 66
     7
 43
1.0
 76
     1
 77
     6
 78
     2
 67
     7
 79
     5
170
     0
171
     0
290
     0
174
     0
 93
        1
 44
50.0
173
     0
291
     1
 45
0.0
1001
ACAD
1000
AcDbSavedByObjectVersion
1070
     0
  0
VISUALSTYLE
  5
3A
102
{ACAD_REACTORS
330
2A
102
}
330
2A
100
AcDbVisualStyle
  2
ColorChange
 70
    16
 71
     2
 72
     2
 73
     3
 90
        0
 40
-0.6
 41
-30.0
 62
     5
 63
     8
421
  8421504
 74
     1
 91
        4
 64
     7
 65
   257
 75
     1
175
     1
 42
1.0
 92
        8
 66
     8
424
  8421504
 43
1.0
 76
     1
 77
     6
 78
     2
 67
     7
 79
     5
170
     0
171
     0
290
     0
174
     0
 93
        1
 44
0.0
173
     0
291
     1
 45
0.0
1001
ACAD
1000
AcDbSavedByObjectVersion
1070
     0
  0
VISUALSTYLE
  5
34
102
{ACAD_REACTORS
330
2A
102
}
330
2A
100
AcDbVisualStyle
  2
Conceptual
 70
     9
 71
     3
 72
     2
 73
     0
 90
        0
 40
-0.6
 41
-30.0
 62
     5
 63
     7
421
 16777215
 74
     2
 91
        2
 64
     7
 65
   257
 75
     1
175
     1
 42
40.0
 92
        8
 66
     7
 43
1.0
 76
     1
 77
     6
 78
     2
 67
     7
 79
     3
170
     0
171
     0
290
     0
174
     0
 93
        1
 44
0.0
173
     0
291
     0
 45
0.0
1001
ACAD
1000
AcDbSavedByObjectVersion
1070
     0
  0
VISUALSTYLE
  5
35
102
{ACAD_REACTORS
330
2A
102
}
330
2A
100
AcDbVisualStyle
  2
Dim
 70
    11
 71
     2
 72
     2
 73
     0
 90
        0
 40
-0.6
 41
-30.0
 62
     5
 63
     7
421
 16777215
 74
     1
 91
        4
 64
     7
 65
   257
 75
     1
175
     1
 42
1.0
 92
        8
 66
     7
 43
1.0
 76
     1
 77
     6
 78
     2
 67
     7
 79
     5
170
     0
171
     0
290
     0
174
     0
 93
        1
 44
-50.0
173
     0
291
     1
 45
0.0
1001
ACAD
1000
AcDbSavedByObjectVersion
1070
     0
  0
VISUALSTYLE
  5
39
102
{ACAD_REACTORS
330
2A
102
}
330
2A
100
AcDbVisualStyle
  2
Facepattern
 70
    15
 71
     2
 72
     2
 73
     0
 90
        0
 40
-0.6
 41
-30.0
 62
     5
 63
     7
421
 16777215
 74
     1
 91
        4
 64
     7
 65
   257
 75
     1
175
     1
 42
1.0
 92
        8
 66
     7
 43
1.0
 76
     1
 77
     6
 78
     2
 67
     7
 79
     5
170
     0
171
     0
290
     0
174
     0
 93
        1
 44
0.0
173
     0
291
     1
 45
0.0
1001
ACAD
1000
AcDbSavedByObjectVersion
1070
     0
  0
VISUALSTYLE
  5
2B
102
{ACAD_REACTORS
330
2A
102
}
330
2A
100
AcDbVisualStyle
  2
Flat
 70
     0
 71
     2
 72
     1
 73
     1
 90
        2
 40
-0.6
 41
30.0
 62
     5
 63
     7
421
 16777215
 74
     0
 91
        4
 64
     7
 65
   257
 75
     1
175
     1
 42
1.0
 92
        8
 66
     7
 43
1.0
 76
     1
 77
     6
 78
     2
 67
     7
 79
     5
170
     0
171
     0
290
     0
174
     0
 93
       13
 44
0.0
173
     0
291
     1
 45
0.0
1001
ACAD
1000
AcDbSavedByObjectVersion
1070
     0
  0
VISUALSTYLE
  5
2C
102
{ACAD_REACTORS
330
2A
102
}
330
2A
100
AcDbVisualStyle
  2
FlatWithEdges
 70
     1
 71
     2
 72
     1
 73
     1
 90
        2
 40
-0.6
 41
30.0
 62
     5
 63
     7
421
 16777215
 74
     1
 91
        4
 64
     7
 65
   257
 75
     1
175
     1
 42
1.0
 92
        0
 66
   257
 43
1.0
 76
     1
 77
     6
 78
     2
 67
     7
 79
     5
170
     0
171
     0
290
     0
174
     0
 93
       13
 44
0.0
173
     0
291
     1
 45
0.0
1001
ACAD
1000
AcDbSavedByObjectVersion
1070
     0
  0
VISUALSTYLE
  5
2D
102
{ACAD_REACTORS
330
2A
102
}
330
2A
100
AcDbVisualStyle
  2
Gouraud
 70
     2
 71
     2
 72
     2
 73
     1
 90
        2
 40
-0.6
 41
30.0
 62
     5
 63
     7
421
 16777215
 74
     0
 91
        4
 64
     7
 65
   257
 75
     1
175
     1
 42
1.0
 92
        0
 66
     7
 43
1.0
 76
     1
 77
     6
 78
     2
 67
     7
 79
     5
170
     0
171
     0
290
     0
174
     0
 93
       13
 44
0.0
173
     0
291
     1
 45
0.0
1001
ACAD
1000
AcDbSavedByObjectVersion
1070
     0
  0
VISUALSTYLE
  5
2E
102
{ACAD_REACTORS
330
2A
102
}
330
2A
100
AcDbVisualStyle
  2
GouraudWithEdges
 70
     3
 71
     2
 72
     2
 73
     1
 90
        2
 40
-0.6
 41
30.0
 62
     5
 63
     7
421
 16777215
 74
     1
 91
        4
 64
     7
 65
   257
 75
     1
175
     1
 42
1.0
 92
        0
 66
   257
 43
1.0
 76
     1
 77
     6
 78
     2
 67
     7
 79
     5
170
     0
171
     0
290
     0
174
     0
 93
       13
 44
0.0
173
     0
291
     1
 45
0.0
1001
ACAD
1000
AcDbSavedByObjectVersion
1070
     0
  0
VISUALSTYLE
  5
38
102
{ACAD_REACTORS
330
2A
102
}
330
2A
100
AcDbVisualStyle
  2
Linepattern
 70
    14
 71
     2
 72
     2
 73
     0
 90
        0
 40
-0.6
 41
-30.0
 62
     5
 63
     7
421
 16777215
 74
     1
 91
        4
 64
     7
 65
   257
 75
     7
175
     7
 42
1.0
 92
        8
 66
     7
 43
1.0
 76
     1
 77
     6
 78
     2
 67
     7
 79
     5
170
     0
171
     0
290
     0
174
     0
 93
        1
 44
0.0
173
     0
291
     1
 45
0.0
1001
ACAD
1000
AcDbSavedByObjectVersion
1070
     0
  0
VISUALSTYLE
  5
33
102
{ACAD_REACTORS
330
2A
102
}
330
2A
100
AcDbVisualStyle
  2
Realistic
 70
     8
 71
     2
 72
     2
 73
     0
 90
        0
 40
-0.6
 41
-30.0
 62
     5
 63
     7
421
 16777215
 74
     1
 91
        0
 64
     7
 65
   257
 75
     1
175
     1
 42
1.0
 92
        8
 66
     8
424
  7895160
 43
1.0
 76
     1
 77
     6
 78
     2
 67
     7
 79
     5
170
     0
171
     0
290
     0
174
     0
 93
       13
 44
0.0
173
     0
291
     0
 45
0.0
1001
ACAD
1000
AcDbSavedByObjectVersion
1070
     0
  0
VISUALSTYLE
  5
37
102
{ACAD_REACTORS
330
2A
102
}
330
2A
100
AcDbVisualStyle
  2
Thicken
 70
    13
 71
     2
 72
     2
 73
     0
 90
        0
 40
-0.6
 41
-30.0
 62
     5
 63
     7
421
 16777215
 74
     1
 91
        4
 64
     7
 65
   257
 75
     1
175
     1
 42
1.0
 92
       12
 66
     7
 43
1.0
 76
     1
 77
     6
 78
     2
 67
     7
 79
     5
170
     0
171
     0
290
     0
174
     0
 93
        1
 44
0.0
173
     0
291
     1
 45
0.0
1001
ACAD
1000
AcDbSavedByObjectVersion
1070
     0
  0
ENDSEC
  0
EOF
